Marillion - Blind Curve Chords & Tabs

 

Blind Curve Chords & Tabs

Marillion Chords & Tabs

Version: 1 Type: Bass Tab 0 ratings
1 star 2 stars 3 stars 4 stars 5 stars
comments

Blind Curve Bass Tab

Standard Tuning

|-----------------|-----------------|---------6-------|-6-------6-------|
|-----------------|-----------------|-------------7-7-|-----7-----7-----|
|-2---------------|-2-------2-------|-0---------------|-----------------|
|-------------2-2-|-----2-----------|-----------------|-----------------|

|-----------------|-----------------|-----------------|-----------------|
|-----------------|-4---4-----------|---------5-------|-5-------5---4-0-|
|---------------4-|-------------4---|---------------5-|-----5-----------|
|-2---------------|-----------------|-3---------------|-----------------|

|-----------------|-----------------|-----------------|-----------------|
|-----------------|-----------------|-----------------|-7---7-----------|
|-2---------------|-2---2-----------|-0-------------7-|---------7---\---|
|-------------2-2-|-----------------|-----------------|-----------------|

|-----------------|-2---------------|-----------------|-0-0-0---0-------|
|-----------------|-----------------|---------------0-|-----------4---0-|
|---------------4-|-----4-----------|-----------------|-----------------|
|-2---------------|-------------2---|-3---------------|-----------------|

|-----------------|---------------2-|---------6-------|-6-------6-------|
|-----------------|-------------4---|---------------7-|-----7-----7---7-|
|-2---------------|-2---2-----------|-0---------------|-----------------|
|---------------2-|-----------------|-----------------|-----------------|

|-----------------|-----------------|-----------------|-----------------|
|-----------------|-4---4-----------|-----------------|-5---5---5-4---0-|
|---------------4-|-------------0-2-|---------------5-|-----------------|
|-2---------------|-----------------|-3-------3-------|-----------------|

|-----------------|-----------------|-----------------|-2-------2-------|
|-----------------|---------4-------|-----------------|-----2-----------|
|-2---------------|-2---2-----------|-0---------------|-----------------|
|---------------2-|-----------------|-----------------|-----------------|

|-----------------|-----------------|
|-----------------|-4---4-----------|
|---------------4-|---------4-4-4---|
|-2---------------|-----------------|

|-----------------|-----------------|-----------------|---------0h2-----|
|-----------------|-----------------|-----------------|-----------------|
|-----------------|---------5-------|-----------------|-----------------|
|-3-3-------------|-----------------|-3-3-------------|-----------------|

|-----------------|---------2-------|-----------------|-----------------|
|-----------------|-------0---------|-----------------|-----------------|
|-----------------|-----------------|-----------------|---------5-------|
|-3-3-------------|-----------------|-3-3-------------|-----------------|

|-----------------|-----------------|-----------------|-----------------|
|-----------------|-----------------|-4---------------|-----------------|
|-----------------|---------4-------|-----------------|---------4-------|
|-2---------------|-----------------|-----------------|-----------------|

|-----------------|---------2-------|-----------------|-----------------|
|-----------------|-------0---------|-----------------|-----------------|
|-----------------|-----------------|-----------------|---------5-------|
|-3-3-------------|-----------------|-3-3-------------|-----------------|

|-----------------|-------2---1-----|-----------------|-----------------|
|-----------------|-------------4---|-----------------|-----------------|
|-----------------|---------------4-|-----------------|---------3h5-----|
|-2---------------|-----------------|-2---------------|-----------------|
                    11
|-----------------|-*-----9---------|-----------------|-9-----7-7-------|
|-----------------|-------------7---|-----------------|-------------7-\-|
|-----------------|-----------------|-----------------|-----------------|
|-3-3-------------|-----------------|-3-3-------------|-----------------|

SOLO

|-----------------|-2---1-----------|-----------------|-2---1-----------|
|-----------------|---------4-------|-----------------|---------4---4---|
|---------------4-|---------------4-|---------------4-|---------------4-|
|-2---------------|-----------------|-2---------------|-----------------|

|-----------------|-2---1-----------|-----------------|-2---1-----------|
|-----------------|---------4-------|-----------------|---------4-------|
|---------------4-|---------------4-|---------------4-|-----------4---4-|
|-3---------------|-----------------|-3---------------|-----------------|

|-----------------|-2---1-----------|-----------------|-2---1-----------|
|-----------------|---------4-------|-----------------|-----------------|
|---------------4-|---------------4-|---------------4-|-----------0-4---|
|-2---------------|-----------------|-2---------------|-----------------|

|-----------------|-2---1-----------|-----------------|-2---1-----------|
|-0---------------|---------4-------|-----------------|-----------4-----|
|---------------4-|---------------4-|---------------4-|-------------4---|
|-----------------|-----------------|-3---------------|-----------------|

|-----------------|-2---1-----------|-----------------|---1-2-----------|
|-----------------|---------4---4---|-----------------|-------4-2-------|
|---------------4-|---------------4-|-----------------|-----------4-2---|
|-2---------------|-----------------|-2-------2-------|---------------2-|
[ Tab from: http://www.guitartabs.cc/tabs/m/marillion/blind_curve_btab.html ]
|-----------------|-----------------|-----------------|-2---------------|
|-----------------|-2---------------|---------------2-|---------------0-|
|---------------2-|-----------------|-0---------------|-----0---0-2-4---|
|-0---------------|-------------2-/-|-----------------|-----------------|

|-----------------|-----------------|---------2-------|-----------------|
|-----------------|-----------------|-----------------|---------------0-|
|-7---------------|-7-\-------------|-0---------------|-0---------3-4---|
|---------------7-|-----0-------3---|-----------------|-----------------|

|-----------------|-----------------|-----------------|-2-----------4---|
|-2---------------|-----------------|---------------2-|-----------------|
|---------------2-|-----------------|-0---------------|-----------------|
|-----------------|-0-------------0-|-----------------|-----------------|

|-----------------|-----------------|-----------------|-2---------------|
|-2---------------|-----------------|---------------2-|-----------------|
|---------------2-|---------2-------|-0---------------|-----0---------2-|
|-----------------|-0---------------|-----------------|-----------------|

|-----------------|-----------------|-----------------|-----------------|
|-2---------------|-2---------------|-----------------|-----------------|
|---------------2-|---------2-------|-0---------------|-0-----------2---|
|-----------------|-----------------|---------------0-|-----------------|

|-----------------|---------4-------|-2---------------|-----------------|
|-----------------|-2---------------|---------------2-|-----------------|
|---------------2-|-----------------|-----------------|-0---0-------2---|
|-0---------------|-----------------|-----------------|-----------------|

VERSE

|-----------------|-----------------|-----------------|-2-------2-4-----|
|-----------------|-2---------------|---------------2-|-----------------|
|---------------2-|-----------------|-0---------------|-----------------|
|-0---------0-----|-----------------|-----------------|-----------------|

|-----------------|-----------------|-----------------|-2---------------|
|-2---------------|-----------------|---------------2-|-----------------|
|---------------2-|---------2-------|-0---------------|-----0---------2-|
|-----------------|-0---------------|-----------------|-----------------|

|-----------------|-----------------|-----------------|-2-------2h4-----|
|-----------------|-2---------------|---------------2-|-------------2h4-|
|---------------2-|---------2-----2-|-0---------------|-----------------|
|-0---------------|-----------------|-----------------|-----------------|

|-----------------|-----------------|---------2-2-----|-----------------|
|-2---------------|-----------------|-----------------|-----------------|
|---------------2-|---------2-------|-0-------------0-|-0---------------|
|-----------------|-0---------------|-----------------|-------------3-2-|

VERSE

|-----------------|-----------------|-----------------|-2---2---2-4---2-|
|-----------------|-2---------------|---------------2-|-----------------|
|---------------2-|---------2-------|-0---------------|-----------------|
|-0---------------|-----------------|-----------------|-----------------|

|-----------------|-----------------|-----------------|-2---------------|
|-2---------------|-2---------------|---------------2-|-----------------|
|---------------2-|-----------------|-0---------------|-----0---0-0-0-2-|
|-----------------|-------------3---|-----------------|-----------------|
                                                                    11
|-----------------|-----------------|-----------------|-------------*---|
|-----------------|-2---------------|-----------------|-7---7-----9---9-|
|---------------2-|-------------2-1-|-0-------------7-|-----------------|
|-0---------------|-----------------|-----------------|-----------------|

|-----------------|-----------------|-----------------|-----------------|
|-----------------|-2---------------|-----------------|-----------------|
|---------------2-|-----------------|-----0-----0-----|-0-----0-----4---|
|-0---------------|-----------------|-----------------|-----------------|

|-----------------|-7---------------|-6---------------|-4---------------|
|-4---------------|-----------------|-----------------|-----------------|
|-----------------|-----------------|-----------------|-----------------|
|-----------------|-----------------|-----------------|-----------------|

|-----------------|-7---------------|-6---------------|-4---------------|
|-4-----------7---|-----------------|-----------------|-----------------|
|-----------------|-----------------|-----------------|-----------------|
|-----------------|-----------------|-----------------|-----------------|

|-----------------|-----------------|
|-----------------|-----------------|
|-----------------|-----------------|
|-----------------|-----------------|

|-----------------|-7---------------|-----------------|-----------------|
|-4---------------|-----------------|-----------------|-----------------|
|-----------------|-----------------|-----------------|-----------------|
|-----------------|-----------------|-----------------|-----------------|

|-6---------------|-4---------------|-----------------|---------7-------|
|-----------------|-----------------|---------4-------|-----------------|
|-----------------|-----------------|-----------------|-----------------|
|-----------------|-----------------|-----------------|-----------------|

|-----------------|-6---------------|-4---------------|-----------------|
|-----------------|-----------------|-----------------|-----------------|
|-----------------|-----------------|-----------------|-----------------|
|-----------------|-----------------|-----------------|-----------------|
Comments