Marillion - Bitter Suite Chords & Tabs

 

Bitter Suite Chords & Tabs

Marillion Chords & Tabs

Version: 1 Type: Bass Tab 0 ratings
1 star 2 stars 3 stars 4 stars 5 stars
comments

Bitter Suite Bass Tab

Standard Tuning

                                                                     4x
|-9-9-9-9-9-9-9-9-|-9-9-9-9-9-9-9-9-|-9-9-9-9-9-9-9-9-|-9-9-9-9-9-9-9-9-||
|*----------------|-----------------|-----------------|----------------*||  
|*----------------|-----------------|-----------------|----------------*||
|-----------------|-----------------|-----------------|-----------------||

|-6-6-6-6-6-6-6-6-|-6-6-6-6-6-6-6-6-|-6-6-6-6-6-6-6-6-|-6-6-6-6-6-6-6-6-|
|-----------------|-----------------|-----------------|-----------------|
|-----------------|-----------------|-----------------|-----------------|
|-----------------|-----------------|-----------------|-----------------|

|-7-7-7-7-7-7-7-7-|-7-7-7-7-7-7-7-7-|-7-7-7-7-7-7-7-7-|-7-7-7-7-7-7-7-7-|
|-----------------|-----------------|-----------------|-----------------|
|-----------------|-----------------|-----------------|-----------------|
|-----------------|-----------------|-----------------|-----------------|

|-----------------|-----------------|-----------------|-----------------|
|-9-9-9-9-9-9-9-9-|-9-9-9-9-9-9-9-9-|-9-9-9-9-9-9-9-9-|-9-9-9-9-9-9-9-9-|
|-----------------|-----------------|-----------------|-----------------|
|-----------------|-----------------|-----------------|-----------------|

|-----------------|-----------------|-----------------|-----------------|
|*7-7-7-7-7-7-7-7-|-7-7-7-7-7-7-7-7-|-7-7-7-7-7-7-7-7-|-7-7-7-7-7-7-7-7-|
|*----------------|-----------------|-----------------|-----------------|
|-----------------|-----------------|-----------------|-----------------|

|-----------------|-----------------|-----------------|-----------------||
|-----------------|-----------------|-----------------|----------------*||
|-9-9-9-9-9-9-9-9-|-9-9-9-9-9-9-9-9-|-9-9-9-9-9-9-9-9-|-9-9-9-9-9-9-9-9*||
|-----------------|-----------------|-----------------|-----------------||

|-7-7-7-7-7-7-7-7-|-7-7-7-7-7-7-7-7-|-7-7-7-7-7-7-7-7-|-7-7-7-7-7-7-7-7-|
|*----------------|-----------------|-----------------|-----------------|
|*----------------|-----------------|-----------------|-----------------|
|-----------------|-----------------|-----------------|-----------------|

|-----------------|-----------------|-----------------|-----------------||
|-9-9-9-9-9-9-9-9-|-9-9-9-9-9-9-9-9-|-9-9-9-9-9-9-9-9-|-9-9-9-9-9-9-9-9*||
|-----------------|-----------------|-----------------|----------------*||
|-----------------|-----------------|-----------------|-----------------||

|-----------------|-----------------|-----------------|-----------------|
|-7-7-7-7-7-7-7-7-|-7-7-7-7-7-7-7-7-|-7-7-7-7-7-7-7-7-|-7-7-7-7-7-7-7-7-|
|-----------------|-----------------|-----------------|-----------------|
|-----------------|-----------------|-----------------|-----------------|

|-----------------|-----------------|-----------------|-----------------|
|-----------------|-----------------|-----------------|-----------------|
|-9-9-9-9-9-9-9-9-|-9-9-9-9-9-9-9-9-|-9-9-9-9-9-9-9-9-|-9-9-9-9-9-9-9-9-|
|-----------------|-----------------|-----------------|-----------------|

|-----------------|-----------------|-----------------|-----------------|
|-7-7-7-7-7-7-7-7-|-7-7-7-7-7-7-7-7-|-7-7-7-7-7-7-7-7-|-7-7-7-7-7-7-7-7-|
|-----------------|-----------------|-----------------|-----------------|
|-----------------|-----------------|-----------------|-----------------|

|-----------------|-----------------|-----------------|-------------|
|-----------------|-----------------|-----------------|-------------|  3/4
|-9-9-9-9-9-9-9-9-|-9-9-9-9-9-9-9-9-|-9-9-9-9-9-9-9-9-|-7---\-------| <---
|-----------------|-----------------|-----------------|-------------|

SOLO

|-------2-2-------|-------2-2-------|-----------------|-----------------|
|*0-----------0---|-------------0---|-------4-4-------|-------4-4-------|
|*----------------|-----------------|-2-----------2---|-------------2---|
|-----------------|-----------------|-----------------|-----------------|

|-------2-2-------|-------2-4-------|-----------------|-----------------|
|-0-----------0---|-------------0---|-------4-4-------|-----4-/-7--7--7-|
|-----------------|-----------------|-2-----------2---|-----------------|
|-----------------|-----------------|-----------------|-----------------|

|-----------------|-----------------|-----------------|-----------------|
|-------2-2-------|-------2-2-------|-----------------|-----------------|
|-0-----------0---|-------------0---|-------4-4-------|-------4-4-------|
|-----------------|-----------------|-2-----------2---|-------------2---|

|-----------------|-----------------|-----------------|-----------------||
|-------2-2-------|-------2-2-------|-----------------|----------------*||
|-0-----------0---|-------------0---|-------4-4-------|----------------*||
|-----------------|-----------------|-2-----------2---|-------0-0---2---||

|-----------------|-----------------|-----------------|-----------------|
|-0-------------0-|-0---0-----------|-----------------|-----------------|
|-----------------|-----------------|-3---------------|-3---3---3-------|
|-----------------|-----------------|---------------3-|-----------------|
[ Tab from: http://www.guitartabs.cc/tabs/m/marillion/bitter_suite_btab.html ]
|-----------------|-----------------|-----------------|-----------------|
|-----------------|-4---2---0-------|-----------------|-----------------|
|-2-------------2-|-------------2-0-|-----------------|-----------0-0---|
|-----------------|-----------------|-3-------------3-|-3---3---3-------|
                                                       10  10
|-----------------|-----------------|-----------------|--10-------------|
|-0-------0-------|-0-0-----0-0-----|-----------------|-*-*-*-----------|
|---------------0-|-------0---------|-3-------3-----/-|---------5-\-----|
|-----------------|-----------------|-----------------|-----------------|

|-----------------|-----------------|-----------------|-----------------|
|-----------------|-----------------|-----------------|-----------5-4---|
|-2-------------2-|-2---2-----------|-----------------|-----------------|
|-----------------|-------------2-0-|-3-------3-------|-3--3--3-3-------|

VERSE

|-----------------|-----------------|-----------------|-----------------|
|-0---------------|-0---0-----------|-----------------|-----------------|
|---------------0-|-------------0-2-|-3---------------|-3-3---3-3-3-----|
|-----------------|-----------------|-----------------|-----------------|

|-----------------|-----------------|---------------0-|-----------------|
|-----------------|-----------------|-----------------|-----------------|
|-2---------------|-2---2-----------|-----------------|-----------------|
|---------------2-|-----------------|-3---------------|-3-3-3-----------|

|-----------------|-----------------|-----------------|-----------------|
|-0---------------|-0---0-----------|-----------------|-----------------|
|---------------0-|-----------------|-3---------------|-3---------------|
|-----------------|-----------------|---------------3-|-----------------|

|-----------------|-----------------|-----------------|-----------------|
|-----------------|-----------------|-----------------|-----------------|
|-2---------------|-2---2-----------|-----------------|-0-5-------0-----|
|---------------2-|-----------------|-3---------------|-----3---3-------|

|-----------------|-----------------|---------------5-|-5-\---5---\-----|
|-0---------------|-0---0-----------|-----------------|-----------------|
|---------------0-|-------------0-2-|-3---------------|-----------------|
|-----------------|-----------------|-----------------|-----------------|

|-----------------|-----------------|-----------------|-0-0---0-0-------|
|-----------------|-----------------|-----------------|-----------4---4-|
|-2---------------|-2---2-----------|-----------------|-----------------|
|---------------2-|-----------------|-3---------------|-----------------|

|-----------------|-----------------|-----------------|-----------------|
|-0---------------|-0---0-----------|-----------------|-----------------|
|---------------0-|-------------0-2-|-3---------------|-3-3-3-3-3-------|
|-----------------|-----------------|---------------3-|-----------------|

|-----------------|-----------------|-----------------|-----------------|
|-----------------|-----------------|-----------------|-----------------|
|-2---------------|-2---2-----------|-----------------|-------------0---|
|---------------2-|-----------------|-3-3---3-3-------|-3-3-----3-------|

SOLO                                                      10  10
                                                        10  10  10
|-----------------|---------2---0---|-----------------|-----------------|
|-0---------------|-0---0---------4-|-----------------|-*-*-*-*-*---\---|
|---------------0-|-----------------|-3-------3---/---|-----------------|
|-----------------|-----------------|-----------------|-----------------|

|-----------------|-----------------|-----------------|-----------------|
|-----------------|-4---2---0-------|-----------------|-0---------------|
|-2---------------|-------------2-0-|-----------------|-----------0---0-|
|---------------2-|-----------------|-3-------3-----3-|---3-3-----------|

|-----------------|-----------------|-----------------|-----7-9-7-------|
|-0-------0-------|-0-0---0-0-0-----|---------------0-|-7-9-------------|
|-----------------|-----------------|-4-------4-------|-----------------|
|-----------------|-----------------|-----------------|-----------------|

|-----------------|-----------------|-----------------|-----------------|
|-----------------|-----2---0-------|-----------------|---------7---\---|
|-2-------2-----2-|-2-----------4-2-|---------0-------|-----------------|
|-----------------|-----------------|-3---------------|-7---------------|

OUTRO                                                            12
                                12    15                       14 14
|-----------------|-----------------|-----------------|---------***-----|
|-0---------------|-----------------|-----------------|-----------------|
|-----------------|-------------*-/-|-*---------------|-----------------|
|-----------------|-----------------|-----------------|-----------------|
  14                                  13      15        12      15
|-----------------|-----------------|-----------------|---------*-------|
|-----------------|-----------------|-----------------|-*---------------|
|-*---------------|-----------------|-*-------*-------|-----------------|
|-----------------|-----------------|-----------------|-----------------|
  14
|-*---------------|-----------------||
|-----------------|-----------------||
|-----------------|-----------------||
|-----------------|-----------------||
Comments