Marillion - Beautiful Chords & Tabs

 

Beautiful Chords & Tabs

Marillion Chords & Tabs

Version: 1 Type: Bass Tab 0 ratings
1 star 2 stars 3 stars 4 stars 5 stars
comments

Beautiful Bass Tab

Standard Tuning

INTRO
                                  10  12                          10  10
|-8---------------|-------------8-*-|-*---------------|-------------8-*-|
|-------------8---|-----------------|-------------8-8-|-----------*-----|
|-----------------|-----------------|-----------------|-----------------|
|-----------------|-----------------|-----------------|-----------------|
  12          10            10
|-*-----------*-\-|-8---------------|-----------------|-----------------|
|-----------------|---------*-----\-|-8---------------|-----6---5---\---|
|-----------------|-----------------|-----------------|-----------------|
|-----------------|-----------------|-----------------|-----------------|

VERSE

|-----------------|-----------------|---------5-----0-|-3---------------|
|-1-----------1---|-0---------------|-----------------|---3-------------|
|---------------1-|---------------1-|-3---------------|-----1-----------|
|-----------------|---------3-------|-----------------|-----------1---3-|

|-----------------|-----------------|---------3-------|-----------------|
|---------------1-|-----------------|-----------------|---------0-------|
|-------------3---|-----------------|-1-------------1-|-3---------------|
|-4---------------|-4---4-------3-1-|-----------------|-----------------|

|-----------------|-----------------|-----------------|-----------3-----|
|-1-----------1---|-0---------------|-----------------|-------------3---|
|---------------1-|-----------------|-3-------3-------|-1---1---------1-|
|-----------------|---------3-------|---------------3-|-----------------|

|---------3-------|-----------------|---------3-------|-----------------|
|-------------3-1-|-------------1---|---------------3-|-------------0---|
|-----------------|---------1-3---3-|-1---------------|-1---3---3-------|
|-4---------------|-4---4-----------|-----------------|-----------------|

|-----------------|-----------------|---------5-----0-|-3---------------|
|-1-------1-------|-0---------------|-----------------|---3-------------|
|---------------1-|-----------------|-3---------------|-----1-----------|
|-----------------|---------3-------|-----------------|-----------3-----|

|-----------------|-----------------|---------3-------|-3h5-------------|
|-----------------|-----------------|---------------3-|-----3---3---0---|
|-----------6-----|---------------3-|-----------------|-----------------|
|-4-----/(8)--8-6-|-4---4-------6---|-6---------------|-----------------|

|-----------------|-----------------|-----------------|-----------3-----|
|-1-------1-------|-0---------------|-----------------|-------------3---|
|---------------1-|-----5-\-------1-|-3-------3-------|-1---1---------1-|
|-----------------|---------3---3---|---------------3-|-----------------|

|-----------------|-----------------|---------3-------|-3---5---7---3---|
|---------------1-|-----------------|-----------------|-----------------|
|-------------3---|---------1---3---|-1---------------|-----------------|
|-4-------4-------|-4---4-----------|-----------------|-----------------|

|-----------------|-----------------|-------0-5-----0-|-3---------------|
|-1-------1---1---|-----------------|-----------------|---3-------------|
|---------------1-|-5-\---------3---|-3---------------|-----1-----------|
|-----------------|-----3---3-------|-----------------|-------------4---|

|-----------------|-1---1---1-0-----|---------3-------|-----------------|
|---------------1-|-------1-----3-1-|-----------------|---------0---0---|
|-------------3---|-----------------|-1-----------1---|-3---3-----------|
|-4---------------|-----------------|-----------------|-----------------|

CHORUS

|---------8-------|-7---7-\---------|---------5-----0-|-3---3-----------|
|---------------8-|---------0---1-0-|-----------------|-------3-1-0-----|
|-6---------------|-----------------|-3-(-/--15)------|-------------3-1-|
|-----------------|-----------------|-----------------|-----------------|

|---------3-------|-----------------|---------3-------|-3h5-------------|
|-------------1---|-----------------|-------3-------3-|-----3-5-----0-3-|
|---------------3-|-----------------|-1---------------|---------1-3-----|
|-4---------------|-4---4---4---3-4-|-----------------|-----------------|

|---------8-----7-|-7/8\7-0---0-----|---------5-----0-|-3---3-----------|
|-----------------|---------6-----0-|-----------------|-------3-1-0-----|
|-6---------------|-------------6---|-3---------------|-------------3-1-|
|-----------------|-----------------|-----------------|-----------------|

|-----------------|-----------------|---------3-------|-----------------|
|---------------1-|-------------1---|---------------3-|---------0---0---|
|-------------3---|---------1-3---3-|-1---------------|-1---3-----------|
|-4-------4-------|-4---4-----------|-----------------|-----------------|

VERSE
                            10
|-----------------|---------*-------|-----------------|-----------------|
|-1-------1-------|-0---0-----------|-------------0---|---------8-------|
|---------------1-|-----------------|-----------------|-----------------|
|-----------------|-----------------|-8-------8-----8-|-6---6-----------|

|---------------3-|-----------------|---------3-------|-----------------|
|-----------------|-----------------|-----------------|---------0-------|
|-----------------|-----------------|-----------------|-----3-----6-8---|
|-4---------------|-4---4---4---3-4-|-6-------------6-|-6---------------|

|-------------8---|-----------------|-----------------|-----------------|
|-6-------6-----8-|-0---------------|-----------------|-----------------|
|-----------------|-----------------|-3-------3-------|-1---1-------1---|
|-----------------|---------3-------|---------------3-|---------3-------|

|-----------------|-3---3-----------|---------3-------|-3-5-7-----------|
|---------------3-|-------------3---|---------------3-|---------8-------|
|-----------------|---------------6-|-----------------|-----------8-6-5-|
|-4---------------|-----------------|-6---------------|-----------------|

CHORUS
[ Tab from: http://www.guitartabs.cc/tabs/m/marillion/beautiful_btab.html ]
|---------8-------|-7---7-\---------|---------5-------|-3---3-----------|
|---------------8-|---------0-------|-----------------|-------3-1-0-----|
|-6---------------|---------------1-|-3---/-----------|-------------3-1-|
|-----------------|-----------------|-----------------|-----------------|

|---------3---1---|-----------------|---------3-------|-----------------|
|---------------1-|-------------1---|-------3---------|-----3-------0---|
|-----------------|---------1-3---3-|-1-------------1-|-1-------1-3---8-|
|-4---------------|-4---4-----------|-----------------|-----------------|

|---------8-----7-|-7/8\7-0---0-----|---------5-----0-|-3---------------|
|-----------------|---------6-----0-|-----------------|-----3---1-0-----|
|-6---------------|-------------6---|-3---------------|-------------3-1-|
|-----------------|-----------------|-----------------|-----------------|

|---------3-------|-----------------|---------3-------|-----------------|
|-------------1---|-------------1---|-------3---------|-------------0-3-|
|---------------3-|---------1-3---3-|-1-------------1-|-1---1---1-3-----|
|-4---------------|-4---4-----------|-----------------|-----------------|

BRIDGE

|---------5-------|-----------------|-----------------|-----------------|
|-----------------|-----------------|-----------------|-----------------|
|-3---------------|-1---1---1-1-1-1-|-3-------3-------|-1---1---1-1-1-1-|
|---------------3-|-----------------|---------------3-|-----------------|

|-----------------|-----------------|-----------------|-----------------|
|-1---------------|-0---------------|-----------------|-----------------|
|-----------------|-----------------|-3---------------|-1---------------|
|-----------------|---------------3-|-----------------|-----------------|

|-----------------|-----------------|---------3-------|-----------------|
|-----------------|-----------------|-----------------|-------------0---|
|-----------------|-------------3---|-1-------------1-|-1---3---3-------|
|-4-------------4-|-4---4-----------|-----------------|-----------------|

|---------5-------|-----------------|-----------------|-----0---0-------|
|-----------------|-----------------|-----------------|-----------0-3-1-|
|-3-3-3-3---------|-1---1---------1-|-3-3-3-3-3-----3-|---3-------------|
|---------------3-|---------1-3-----|-----------------|-3---------------|

|-----------------|-0---0---0-------|-----------------|---0-3-3-3-------|
|---------------0-|---0-----------0-|-----------------|-----------3-----|
|-3-------3-------|-------------1---|-3-------3-----3-|-3-----------1---|
|-------3---------|-----------------|-------3---------|---------------3-|

PRE-CHORUS

|-----------------|-----------------|-----------------|-----------------|
|-----------------|-----------------|-----------------|-----------------|
|-----------------|-1---1-1-1---1---|-----------------|-----------------|
|-4-------4---3-4-|---------------4-|-3-------3---1-3-|-4---4---4-------|
  13  12  10  
|-*---*---*---8---|-7/8\7---7-------|-----------------|---------3-------|
|-----------------|-----------6-7-6-|-5/6\5-----------|-------------3---|
|-----------------|-----------------|-------8-6---5---|-----------------|
|-----------------|-----------------|---------------6-|-4---------------|

|-----------------|---------------7-|-8-------8---850-|-----------------|
|-----------------|-------------8---|-----------------|-8---------------|
|---------------3-|-----------------|-----------------|-------8---------|
|-4-------4---6---|-6-------6-------|-----------------|---------6-6-----|

|-----------------|
|-------------0---|
|---------------8-|
|-6-------6-8-----|

CHORUS

|---------8-------|-7---7-\---------|---------5-----0-|-3---------------|
|-----------------|---------0---1-0-|-----------------|-----3---1-0-----|
|-6---------------|-----------------|-3---------------|-------------3-1-|
|---------------6-|-----------------|-----------------|-----------------|

|---------3-------|-----------------|-----------------|---5-------------|
|-------------1---|-------------1---|-3-------8-------|-8---8-6-5-------|
|---------------3-|---------1-3---3-|-------0---------|-----------8-6-5-|
|-4---------------|-4---4-----------|-----------------|-----------------|

|---------8-----7-|-7-5-------------|---------5---5-5-|---5-------------|
|-----------------|-----8-6-5-------|-----------------|-8---8-6-5-------|
|-6---------------|-----------8-6-5-|-----------------|-----------8-6---|
|-----------------|-----------------|-8---------------|---------------6-|

|-----------------|-----------------|---------3-------|-----------------|
|---------8-------|-----------------|-------3---------|-----------------|
|-------------8-6-|---6-------3-6-3-|-----------------|---------6---3---|
|-4---------------|-4---4---6-------|-6-----------6-4-|-3---3-6-------6-|

ENDING

|---------3-------|-----------------|-----------------|-----------------|
|-------------3-1-|-----------1-----|-----------------|-----------------|
|-----------------|-1---1-1-3---3-1-|-----------------|-----------------|
|-4---------------|-----------------|-3-------3---1-3-|-4---4---4-------|
  13  12  10                  10                10
|-*---*---*---8---|-7/8\7---7-------|-----------------|-----------------|
|-----------------|-----------*-8-7-|-8-------8h*p8-7-|-------------6-8-|
|-----------------|-----------------|-----------------|---6-----6-8-----|
|-----------------|-----------------|-----------------|-----------------|
                              10
|-5---------------|-----------------|-----------------|-----------------|
|-----------------|-----------*-8-6-|-5h6---5-6-5-----|-----------------|
|-------------6---|-----------------|-------------8-6-|-8-6-5---5-------|
|---------6-8---8-|-6---6---6-------|-----------------|-------8---8-6-3-|

|-----------------|-----------------|-----------------|-----------3-----|-
|-----------------|-----------------|-----------------|-------------3---|-
|-----------------|---3-------3-----|-----------------|---------------3-|-
|-4---------3-4-3-|-6---6-------6-4-|-3-------3---3---|-4-------4-------|-4
Comments