Marianas Trench - Say Anything Chords & Tabs

 

Say Anything Chords & Tabs

Marianas Trench Chords & Tabs

Version: 1 Type: Tab

Say Anything Tab

Band:Marianas Trench
Song:Say Anything
Drop D Tuning

Intro
e|-----------------------------------------------------------------|
B|-----------------------------------------------------------------|
G|-11---9---4-------9---9---4--------------------------------------|
D|-11---9---4---7---7---9---4---9----------------------------------| 
A|--9---7---2---4---7---7---2---7----------------------------------|
D|--------------4---7-----------7----------------------------------|

e|-----------------------------------------------------------------|
B|-----------------------------------------------------------------|
G|------------------6----------------------------------------------|
D|--2---9---7---2---6---6------------------------------------------| 
A|--2---9---7---2---4---6------------------------------------------|
D|--2---9---7---2-------6------------------------------------------| 
Then its just bass for a bit...then this... 

Brige
Guitar 1
e|-----------------------------------------------------------------|
B|-----------------------------------------------------------------|
G|----------6---4---------------4----------------------------------| 
D|--4---7---6---4---4---7---2---4---7------------------------------|
A|--4---7---4---2---4---7---2---2---7------------------------------|
D|--4---7-----------4---7---2-------7------------------------------| x1

Guitar 2
e|-----------------------------------------------------------------|
B|--------0--4--5--4--0---5---4--5--4--2---------------------------|
G|------6---------------4---4--------------------------------------| 
D|-----------------------------------------------------------------|
A|----4------------------------------------------------------------|
D|--4--------------------------------------------------------------| x2

Chorus
Both Guitars
e|-----------------------------------------------------------------|
B|-----------------------------------------------------------------|
G|-----------------------------------------------------------------|
D|--2---9---11---7---4---6h7---7p6---------------------------------| 
A|--2---9---11---7---4---6h7---7p6---------------------------------|
D|--2---9---11---7---4---6h7---7p6---------------------------------|  x2
[ Tab from: http://www.guitartabs.cc/tabs/m/marianas_trench/say_anything_tab.html ]
Guitar 1
e|-----------------------------------------------------------------|
B|-----------------------------------------------------------------|
G|--9---9----------------------------------------------------------|
D|--9---9---9------------------------------------------------------| 
A|--7---6---7------------------------------------------------------|
D|--X---X---7------------------------------------------------------| 

Guitar 2
e|-----------------------------------------------------------------|
B|-----------------------------------------------------------------|
G|--4--11---9------------------------------------------------------|
D|--2---9---7------------------------------------------------------| 
A|--2---9---7------------------------------------------------------|
D|--2---9---7------------------------------------------------------|
 

e|--0---0---0----0---0---0-----------------------------------------|
B|--0---0---0----0---0---0-----------------------------------------|
G|-11---9---4---11---9---4-----------------------------------------|
D|-11---9---4---11---9---4-----------------------------------------| 
A|--9---7---2----9---7---2-----------------------------------------|
D|-----------------------------------------------------------------| 
Then repeat the bridge and chorus, then this...

e|-----------------------------------------------------------------|
B|-----------------------------------------------------------------|
G|------------------------4--4-------6-----------------------------|
D|--7--7--X-X--2--2--X-X--4--4--X-X--6--6--------------------------| 
A|--7--7--X-X--2--2--X-X--2--2--X-X--4--6--------------------------|
D|--7--7--X-X--2--2--X-X--------X-X-----6--------------------------| x3

e|-----------------------------------------------------------------|
B|-----------------------------------------------------------------|
G|-----------------------------------------------------------------|
D|--4---7----------------------------------------------------------| 
A|--4---7----------------------------------------------------------|
D|--4---7----------------------------------------------------------| x1

Then the chorus again...then end on this...
e|-----------------------------------------------------------------|
B|-----------------------------------------------------------------|
G|--------4--------4-----------------------------------------------|
D|--7--7--4--7--7--4--7--6--4--------------------------------------| 
A|--7--7--2--7--7--2--7--6--4--------------------------------------|
D|--7--7-----7--7-----7--6--4--------------------------------------| 

Marianas Trench Websites
http://myspace.com/marianastrench
http://www.far-from-here.net/