Mariah Carey - Hero Chords & Tabs

 

Hero Chords & Tabs

Mariah Carey Chords & Tabs

Version: 1 Type: Tab 0 ratings
1 star 2 stars 3 stars 4 stars 5 stars
comments

Hero Tab

|-------------------0----------0--|-----0------0------0---------0--|
|--7-------------7----------------|---0------0-----7---------------|
|--9--9------9-8-------9-----8----|--------------8------9-----8----|
|--9-------9---------------9------|-------------------------9------|
|--7------------------------------|--------------------------------|
|---------------------------------|--9--------------------7--------|

|---------------------------------|
|----------------5--------2--4----|
|--6-8-9-------4-----2----2--4----|
|--------7-----------2----2--4----|
|--0----------------------2--2----|
|--------------4-----2------------|

Verse

|---------------------------------|--------------------------------|
|--7--7--7--7----7--7--7--7-------|--7--7--7--7----5--5--4--4------|
|--9--9--9--9----9--9--9--9-------|--9--9--9--9----6--6--4--4------|
|--9--9--9--9----9--9--9--9-------|--9--9--9--9----7--7--4--4------|
|--7--7--7--7---------------------|----------------------2--2------|
|----------------10-10-10-10------|--9--9--9--9----7--7------------|

|----------------0--0--0--0-------|--3--3--3--3--------------------|
|--5--5--5--5----3--3--3--3-------|--3--3--3--3----5--5---4--4-----|
|--4--4--4--4----2--2--2--2-------|--0--0--0--0----6--6---4--4-----|
|--6--6--6--6----0--0--0--0-------|--2--2--2--2----7--7---4--4-----|
|--7--7--7--7---------------------|--3--3--3--3-----------2--2-----|
|--0--0--0--0----2--2--2--2-------|----------------7--7------------|

Chorus

|----------------4--4--4----------|--0--0--0-----------------------|
|--7--7--7--7----5--5--5--9-------|--5--5--5--4-----2--2--5--5-----|
|--9--9--9--9----4--4--4--9-------|--6--6--6--4-----2--2--6--6-----|
|--9--9--9--9----6--6--6--9-------|--6--6--6--4-----2--2--7--7-----|
|--7--7--7--6----4--4--4----------|--0--0--0-----------------------|
|-------------------------7-------|-----------4-----2--2--7--7-----|

|-----------------4--4------------|--0--0--0-----------------------|
|--7--7--7--7-----5--5--9--9------|--0--0--0--4-----2--2--5--5-----|
|--9--9--9--9-----4--4--9--9------|--2--2--2--4-----2--2--6--6-----|
|--9--9--9--9-----6--6--9--9------|--2--2--2--4-----2--2--7--7-----|
|--7--7--7--6-----4--4------------|--0--0--0-----------------------|
|-----------------------7--7------|-----------4-----2--2--7--7-----|


|-------------------0---------0---|--4---4-------------0---------0-|
|--7-------------7----------------|--5-5-5----5-----5--0---------0-|
|--9--9------9-8------9-----8-----|--4-4------4---4------2-----2---|
|--9-------9--------------9-------|--6-6------6-6------------2-----|
|--7------------------------------|--4---------------------0-0-----|
|---------------------------------|--------------------------------|

Verse

|---------------------------------|--------------------------------|
|--7--7--7--7-----7--7--7--7------|--7--7--7--7-----5--5--4--4-----|
|--9--9--9--9-----9--9--9--9------|--9--9--9--9-----6--6--4--4-----|
|--9--9--9--9-----9--9--9--9------|--9--9--9--9-----7--7--4--4-----|
|--7--7--7--7---------------------|-----------------------2--2-----|
|-----------------10-10-10-10-----|--9--9--9--9-----7--7-----------|

|--5--5--5--5-----0--0--0--0------|--3--3--3--3--------------------|
|--4--4--4--4-----3--3--3--3------|--3--3--3--3-----5--5--4--4-----|
|--6--6--6--6-----2--2--2--2------|--0--0--0--0-----6--6--4--4-----|
|--7--7--7--7-----0--0--0--0------|--2--2--2--2-----7--7--4--4-----|
|--0--0--0--0---------------------|--3--3--3--3-----------2--2-----|
|-----------------2--2--2--2------|-----------------7--7-----------|

Chorus
[ Tab from: http://www.guitartabs.cc/tabs/m/mariah_carey/hero_tab.html ]
|-----------------4--4--4---------|--0--0--0-----------------------|
|--7--7--7--7-----5--5--5--9------|--5--5--5--4-----2--2--5--5-----|
|--9--9--9--9-----4--4--4--9------|--6--6--6--4-----2--2--6--6-----|
|--9--9--9--9-----6--6--6--9------|--6--6--6--4-----2--2--7--7-----|
|--7--7--7--6-----4--4--4---------|--0--0--0-----------------------|
|--------------------------7------|-----------4-----2--2--7--7-----|

|-----------------4--4------------|--0--0--0-----------------------|
|--7--7--7--7-----5--5--7---------|--0--0--0--4-----2--2--5--5-----|
|--9--9--9--9-----4--4--9---------|--2--2--2--4-----2--2--6--6-----|
|--9--9--9--9-----6--6--9---------|--2--2--2--4-----2--2--7--7-----|
|--7--7--7--6-----4--4------------|--0--0--0-----------------------|
|-----------------------7---------|-----------4-----2--2--7--7-----|



|-----------------3--3--3--3------|--------2--2-----3--3--3--3-----|
|--7--7--7--7-----1--1--3--3------|--0--0--3--3-----1--1--3--3-----|
|--9--9--9--9-----0--0--0--0------|--0--0--2--2-----0--0--0--0-----|
|--9--9--9--9-----2--2--0--0------|--0--0--0--0-----2--2--0--0-----|
|--7--7--7--7-----3--3--2--2------|--2--2-----------3--3--2--2-----|
|---------------------------------|--3--3--------------------------|

|-----------2---------------------|--3--3--3--3-----------2--2-----|
|--0--3--3--3---------------------|--1--1--3--3-----0--0--3--3-----|
|--0--2--0--2---------------------|--0--0--0--0-----0--0--2--2-----|
|--0--0--2--0---------------------|--2--2--0--0-----0--0--0--0-----|
|--2-----2------------------------|--3--3--2--2-----2--2-----------|
|--3--2--0------------------------|-----------------3--3-----------|

|--3--3--3--3---------------------|
|--1--1--3--3-----5--5--5--4------|
|--0--0--0--0-----6--6--6--4------|
|--2--2--0--0-----7--7--7--4------|
|--3--3--2--2--------------2------|
|-----------------7--7--7---------|

Chorus & out

|-----------------4--4--4---------|--0--0--0-----------------------|
|--7--7--7--7-----5--5--5--9------|--5--5--5--4-----2--2--5--5-----|
|--9--9--9--9-----4--4--4--9------|--6--6--6--4-----2--2--6--6-----|
|--9--9--9--9-----6--6--6--9------|--6--6--6--4-----2--2--7--7-----|
|--7--7--7--6-----4--4--4---------|--0--0--0-----------------------|
|--------------------------7------|-----------4-----2--2--7--7-----|

|-----------------4--4------------|--0--0--0-----------------------|
|--7--7--7--7-----5--5--9--9------|--0--0--0--4-----2--2--5--5-----|
|--9--9--9--9-----4--4--9--9------|--2--2--2--4-----2--2--6--6-----|
|--9--9--9--9-----6--6--9--9------|--2--2--2--4-----2--2--7--7-----|
|--7--7--7--6-----4--4------------|--0--0--0-----------------------|
|-----------------------7--7------|-----------4-----2--2--7--7-----|

|--0--0---------------------------|
|--0--0--5--5-------2----5--------|
|--2--2--4--4-------2----6--------|
|--2--2--2--3-------2----7--------|
|--0--0---------------------------|
|--------4--4-------2----7--------|

|--------------------0---------0--|-----0------0-----0---------0---|
|--7--------------7---------------|---0------0-----7---------------|
|--9--9-------9-8------9-----8----|--------------8-----9-----8-----|
|--9--------9--------------9------|------------------------9-------|
|--7------------------------------|--------------------------------|
|---------------------------------|--9-------------------7---------|

|---------------------|-----------|
|--------------5------|-----5-----|
|--6-8-9-------6--8---|-----4-----|
|--------7-----7--9---|-----6-----|
|--0--------------9---|-----7-----|
|--------------7--7---|-----0-----|

Well, that's it....... Any comments? If yes, e-mail me at hayasan_323@hotmail.com
or comment anything in here, right here, on Ultimate-Guitar. ENJOY!!!
Comments