Mariah Carey - Always Be My Baby Chords & Tabs

 

Always Be My Baby Chords & Tabs

Mariah Carey Chords & Tabs

Version: 2 Type: Tab

Always Be My Baby Tab

   
Mariah Carey
Always Be My Baby
Transcribed by Soch H.

Capo 4th Fret
(All relative to capo)
[ Tab from: http://www.guitartabs.cc/tabs/m/mariah_carey/always_be_my_baby_tab_ver_2.html ]
Intro Riff:
  C                      G       F                   G
|-0-----0------------------------------------------------|
|-----1---1--------1h3p1-----------1-3-1-------1-3-1-3---|
|---0---------0-0--------0---0h2---0-0-0--0-0--0-0-0-0---|
|--------------------------2-----------------------------|
|--------------------------------------------------------|
|--------------------------------------------------------|
  Am                     G       F                   G
|-0-----0------------------------------------------------|
|-----1---1--------1h3p1-----------1-3-1-------1--1------|
|---0---------0-0--------0---0h2---0-0-0--0-0--------0---|
|--------------------------2-----------------------------|
|--------------------------------------------------------|
|--------------------------------------------------------|

  C                      G       F                   G
|-0-----0------------------------------------------------|
|-----1---1--------1h3p1-----------1-3-1-------1-3-1-3---|
|---0---------0-0--------0---0h2---0-0-0--0-0--0-0-0-0---|
|--------------------------2-----------------------------|
|--------------------------------------------------------|
|--------------------------------------------------------|
  Am                     G       F                   G
|-0-----0------------------------------------------------|
|-----1---1--------1h3p1-----------1-3-1-------1--1------|
|---0---------0-0--------0---0h2---0-0-0--0-0--------0---|
|--------------------------2-----------------------------|
|--------------------------------------------------------|
|--------------------------------------------------------|

Backing Chords:
C:   x32010
G:   320033
F:   133211
Am:  x02210