Marduk - Wolves Chords & Tabs

 

Wolves Chords & Tabs

Marduk Chords & Tabs

Version: 1 Type: Tab 0 ratings
1 star 2 stars 3 stars 4 stars 5 stars
comments

Wolves Tab

   
  MARDUK : Wolves

   Riff A (intro et accompagnement)
D||---------------------------|------------------------|
A||---------------------------|------------------------|
F||---------------------------|------------------------|
C||--9----9--9--10----10--10--|--9----9--9--5----9--7--|
G||--7----7--7--7-----7---7---|--7----7--7--3----7--5--|
D||---------------------------|------------------------|


Riff B (accompagnement)
---------------------|---------------------|
---------------------|---------------------|
---------------------|---------------------|
--9--------10--------|--5--------10--------|
--7--------8---------|--3--------8---------|
---------------------|---------------------|



Riff C (transition)
--------------------------|--------------------|
--------------------------|--------------------|
--------------------------|--------------------|
--------------------------|--------------------|
--4---4-4--5---5-5--4--7--|--5--4--------------|
--2---2-2--3---3-3--2--5--|--3--2--------------|


Riff C' (transition)
--------------------------|--------------------|
--------------------------|--------------------|
--4---4-4--5---5-5--4--3--|--4--5--------------|
--2---2-2--3---3-3--2--1--|--2--3--------------|
--------------------------|--------------------|
--------------------------|--------------------|


Riff D
------------------------------|
------------------------------|
------------------------------|
--9---9-9--10---10-10--9--12--|
--7---7-7--8----8--8---7--10--|
------------------------------|

[ Tab from: http://www.guitartabs.cc/tabs/m/marduk/wolves_tab.html ]
Riff E
--0----1---------------|-----------------------|-----------------------|
-------------1---------|-----------------------|-----------------------|
------------------2----|--2--4--5--4--4--------|--2--5--4--5--4--------|
--9----10----5----2----|-----------------------|-----------------------|
--7----8-----3----0----|--0--0--0--0--7--------|--0--0--0--0--7--------|
-----------------------|-----------------------|-----------------------|


Riff F
-----------------------|------------------------|
-----------------------|------------------------|
--2--4--5--4--4--------|--2--5--4--5--4----7----|
-----------------------|--------------2----5----|
--0--0--0--0--7--------|--0--0--0--0------------|
-----------------------|------------------------|


Riff G (accompagnement)
--------------------|--------------------|
--------------------|--------------------|
--5------------6----|--5------------6----|
--3------------4----|--3------------4----|
--------------------|--------------------|
--------------------|--------------------|



--------------------|--------------------|
--------------------|--------------------|
--------------------|--------------------|
--3------------4----|--3------------4----|
--1------------2----|--1------------2----|
--------------------|--------------------|


Riff H (accompagnement fin)
-----------------------|------------------------|------------------------||
-----------------------|------------------------|------------------------||
--4----4----4-4-4------|------------------------|--9----10----5----10----||
--2----5----2-5-2------|--9----10----5----10----|--7----8-----3----8-----||
-----------------------|--7----8-----3----8-----|------------------------||
-----------------------|------------------------|------------------------||
Comments