Marduk - Summers End Chords & Tabs

 

Summers End Chords & Tabs

Marduk Chords & Tabs

Version: 1 Type: Tab 0 ratings
1 star 2 stars 3 stars 4 stars 5 stars
comments

Summers End Tab

   
Band: MarduK
Song: Summers End(Track #7)
Album: La Grande Danse Macabre
Tabbed by: KnjaZ_LucIfeR(lord_antichrist@xaker.ru)(Any Corrections Are Welcome)
Tuning: E(Normal)

                            - MARDUK -
                          - SUMMERS END - 
                    - VERSION 0.1alpha 03 Aug 2002 -

LEGEND:
h       - hammer on
p       - pull-off
\ and / - slide
~       - let ring
tr      - trill
**      - quick pick
.....   - in this moment hit the chord X times(probably 3 times)
"""""   - watch for the timing
P.M.    - Palm Mute

SONG STRUCTURE:
Riff1 + Riff2 = 2 times
Riff3 + Riff4 = 6 times
Riff5 + Riff6 = 4 times
Riff7 + Riff8 = 6 times
Riff3 + Riff4 + (hit chord(probably E5) with P.M.)= X times -> Fade out
Riff 1(Wah Wah)
|--------------------------------|   |--------------------------------|
|--------------------------------|   |--------------------------------|
|--------------------------------| O |--------------------------------|
|--------------------------------| R |--------------------------------|
|----------------1/2\1-----------|   |--------------------------------|
|-0-02h3p2-3-6-7-------3-2-3-2-0~|   |-0-02h3p2-3-6-7-6/7\6-3-2-3-2-0~|
    **
Riff 2(Wah Wah)
|------------------------------|       |------------------------------|
|------------------------------|       |------------------------------|
|------------------------------|   O   |------------------------------|
|------------------------------|   R   |------------------------------|
|----------------1/2\1---------|       |------------------------------|
|-0-02h3p2-3-6-7-------2/3\2-0~|       |-0-02h3p2-3-6-7-6/7\6-2/3\2-0~|
    **

Riff 3(Distortion)
|-------------------------------|
|-------------------------------|
|-------------------------------|
|-------------------------------|
|----------------1tr2-----------|
|-0-02h3p2-3-6-7------3-2-3-2-0~|
    **
[ Tab from: http://www.guitartabs.cc/tabs/m/marduk/summers_end_tab.html ]
Riff 4(Distortion)
|------------------------------|
|------------------------------|
|------------------------------|
|------------------------------|
|----------------1/2\1---------|
|-0-02h3p2-3-6-7-------2/3\2-0~|
    **

Riff 5(Heavy Distortion)
|------------------------------------------|       |--------------------------------------|
|------------------------------------------|       |--------------------------------------|
|-2-2-2---5-7~-----------------------------|   O   |-4-4-4---5-7~-------------------------|
|-2-2-2---5-7~--15-14h15p14--12-11h12p11~\-|   R   |-4-4-4---5-7~--12-11h12p11--9-8h9p8~\-|
|-0-0-0---3-5~-----------------------------|       |-2-2-2---3-5~-------------------------|
|------------------------------------------|       |--------------------------------------|
  '''''                                              '''''

Riff 6(Heavy Distortion)
|------------------------------------------|   |------------------------------------------|
|------------------------------------------|   |------------------------------------------|
|-2-2-2---5-7~-----------------------------| O |-4-4-4---5-7~-----------------------------|
|-2-2-2---5-7~--15-14h15p14--19-18h19p18~\-| R |-4-4-4---5-7~--12-11h12p11--15-14h15p14~\-|
|-0-0-0---3-5~-----------------------------|   |-2-2-2---3-5~-----------------------------|
|------------------------------------------|   |------------------------------------------|
  .....                                          .....

Riff 7(Heavy Distortion)
|--------------------------------------|
|--------------------------------------|
|--------------------------------------|
|-4-4-5\4~-4-2~------4~----------------|
|-4-4-5\4~-4-2~------4~-----5--4-5-4~\-|
|-2-2-3\2~-2-0~------2~----------------|
  """""""""""""""""""""""""""""""""""

Riff 8(Heavy Distortion)
|-------------------------------------|
|-------------------------------------|
|-------------------------------------|
|-4~-5\4~---2~------4~----------------|
|-4~-5\4~---2~------4~-----5--4-5-4~\-|
|-2~-3\2~---0~------2~----------------|
  """""""""""""""""""""""""""""""""""

It's all.
Comments