Marduk - On Darkened Wings Chords & Tabs

 

On Darkened Wings Chords & Tabs

Marduk Chords & Tabs

Version: 1 Type: Tab 0 ratings
1 star 2 stars 3 stars 4 stars 5 stars
comments

On Darkened Wings Tab

Date: Sat, 04 Aug 01, 13:28 -0500
From: 
Subject:marduk - on darkened wings.tab

MARDUK
"On darkened wings" 
from Alexander Mischke

1.Intro. All in strange vibrato:
E-|------------------------|
B-|------------------------|
G-|------------------------|  until thunder comes...
D-|------------------------|
A-|-5----6--3--5---6--3--5-|
E-|------------------------|


2.Main riff
E-|------------|------------------|
B-|------------|------------------|
G-|-7--7--8--5-|-7--7--8--5-/-8-7-|
D-|-7--7--8--5-|-7--7--8--5-/-8-7-|
A-|-5--5--6--3-|-5--5--6--3-/-6-5-|
E-|------------|------------------|


3.2nd riff I think all notes played with thrill 
E-|----------------------|
B-|----------------------|
G-|----------------------|
D-|----------------------|
A-|-10---10---11---11-12-|
E-|----8----8----9-------|

	
4.3rd riff
E-|-------------|
B-|-------------|
G-|-------------|
D-|----11-10----|   4 times
A-|-11-------10-|
E-|-------------|

[ Tab from: http://www.guitartabs.cc/tabs/m/marduk/on_darkened_wings_tab.html ]
5.Ecstatic riff! I don't think it's right but maybe, I say, maybe, it's:
   1         2           3          4
E-|----------------------------------------------------|
B-|----------------------------------------------------|
G-|----------------------------------------------------| bass guitar
D-|12-----------13------------13-----------12----------|  with some  
A-|--12----(x3)---13----(x3)----13----(x3)---12---(x3)-| organ sounds
E-|----10-----------11------------11-----------10------|

 
6.Complex riff
   1     2     3     4                         4   
E-|----------------|--------|                 |--------------------|
B-|----------------|--------| and second time |--------------------|
G-|-8----8-----9---|-9-11/9-|                 |-9-8/11\9\8-cleaner-|
D-|-8----8-----9---|-9-11/9-|                 |-9-8/11\9\8---tone--|
A-|-6----6-----7---|-7--9/7-|                 |-7-6/-9\7\6---here--|
E-|----------------|--------|                 |--------------------|

	             		                                 ^	
   1     2     3     4                                         ^
E-|-----------------------|                                    ^
B-|-----------------------|       
Comments