Marduk - Of Hells Fire Chords & Tabs

 

Of Hells Fire Chords & Tabs

Marduk Chords & Tabs

Version: 1 Type: Tab 0 ratings
1 star 2 stars 3 stars 4 stars 5 stars
comments

Of Hells Fire Tab

                         MARDUK - OF HELL'S FIRE
                           From "Nightwing"            


Transcribed by: Nakhtal Frost

Please send any comments or corrections to Steinzo@hotmail.com
Listen to the song for the exact timing and structure.

.   - palm mute                         /  - slide up
\   - slide down                        ~  - vibrato
"   - tremolo picking                   () - ghost note
p   - pull off                          h  - hammer-on 
tr  - trill                             fb - full bend (1step)
< > - harmonic

Standard tuning (EADGBE)
All riffs are played in 16th unless otherwise noted.

Riff 1 (intro)
|-----------------------------------------------------------------|
|-----------------------------------------------------------------|
|-----------------------------------------------------------------|
|-9-----------4---5-----------------------------------------------|
|-7-----------2---3-----------7---6-------------------------------|
|-----------------------------5---4-------------------------------|

Riff 2 (verse)
|---------------------------------------------|
|---------------------------------------------|
|---------------------------------------------|
|---4---5---4-------------4---5---4-----------|
|---------------5---4-----------------4---5---|
|-2---2---2-------------2---2---2-------------|
[ Tab from: http://www.guitartabs.cc/tabs/m/marduk/of_hells_fire_tab.html ]
Riff 3 (chorus)
|-----------------------------------------------------------------|
|-----------------------------------------------------------------|
|-----------------------------------------------------------------|
|---------9-------------------------------9-----------------------|
|-2-------7-------5-------3-------2-------7-------5-------3---5---|
|-0---------------3-------1-------0---------------3-------1---3---|

Riff 4a
|---------------------------------|
|---------------------------------|
|-9---------------7-------10------|
|-9---------------7-------10------|
|---------------------------------|
|---------------------------------|

Riff 4b
|---------------------------------|
|---------------------------------|
|---------------------------------|
|-9---------------7-------10------|
|-7---------------5-------8-------|
|---------------------------------|

Riff 5a
|-----------------------------------------------------------------|
|-----------------------------------------------------------------|
|-----------------------------------------------------------------|
|-9-----------7---9-----------7---9---10--12--13--12--10--12--10--|
|-7-----------5---7-----------5---7---8---10--11--10--8---10--8---|
|-----------------------------------------------------------------|

Riff 5a
|-----------------------------------------------------------------|
|-----------------------------------------------------------------|
|-9-----------7---9-----------7---9---10--12--13--12--10--12--10--|
|-7-----------5---7-----------5---7---8---10--11--10--8---10--8---|
|-----------------------------------------------------------------|
|-----------------------------------------------------------------|

Fill 1
|-----------------------------------------------------------------|
|-----------------------------------------------------------------|
|-----------------------------------------------------------------|
|-9-----------7---9-----------7---9---10--7---9---5---7---4---5---|
|-7-----------5---7-----------5---7---8---5---7---3---5---2---3---|
|-----------------------------------------------------------------|
Comments