Marduk - Deme Quaden Thyrane Chords & Tabs

 

Deme Quaden Thyrane Chords & Tabs

Marduk Chords & Tabs

Version: 2 Type: Tab 0 ratings
1 star 2 stars 3 stars 4 stars 5 stars
comments

Deme Quaden Thyrane Tab

   
Band:  (Marduk)
Album: (Opus Nocturne)
Song:  (Deme Quaden Thyrane)

Transcribed By: (Gat Tabber)

/  - slide up to         \  - slide down to      
h  - hammer on           p  - pull off            
*  - see comment         x  - Stuccatto
"  - tremolo note        <> - Trill

Tunning: E A D G B E

Section 1. 1/2Time.
|--------------------------------------| 
|--------------------------------------| 
|--------------------------------------| 
|--------4--------4--------4--------4--| 
|-----5--------5--------5--------5-----| 
|--2--------2--------2--------2--------| 

|--------------------------------------| 
|--------------------------------------| 
|--------------------------------------| 
|--------5--------5--------5--------5--| 
|-----7--------7--------7--------7-----| 
|--3--------3--------3--------3--------|  

|--------------------------------------| 
|--------------------------------------| 
|--------------------------------------| 
|--------4--------4--------4--------4--| 
|-----5--------4--------5--------2-----| 
|--2--------2--------2--------2--------|  

|--------------------------------------| 
|--------------------------------------| 
|--------------------------------------| 
|--------5--------5--------7--------5--| 
|-----7--------7--------9--------7-----| 
|--3--------3--------5--------3--------|  

Section 2.
strummed 1 &e a 2 &e a...('-down,"-down/up,'-down)etc...
|------------------------------| 
|------------------------------| 
|--'-"-'--'-"-'--'-"-'--'-"-'--| 
|--4------4------4------4------| 
|--5------5------5------5------| 
|--2------2------2------2------|  

|------------------------------| 
|------------------------------| 
|--'-"-'--'-"-'--'-"-'--'-"-'--| 
|--5------5------5------5------| 
|--7------7------7------7------| 
|--3------3------3------3------|  

|------------------------------| 
|------------------------------| 
|--'-"-'--'-"-'--'-"-'--'-"-'--| 
|--4------4------4------4------| 
|--5------4------5------2------| 
|--2------2------2------2------|  

|----------------------  ---------| 
|----------------------  ---------| 
|--'-"-'--'-"-'sl'-----  -x-x-x---| ,Staccato
|--5------5-----/7-----  -5-7-5---|  into next  
|--7------7-----/9-----  -7-9-7---|  riff.
|--3------3-----/5-----  -3-5-3---|  
 
Verse.
Section 3.	Play Fast.
|--------------------------------------------------------|
|--------------------------------------------------------|
|----------------"--"---"--"---"--"---"--"---"--"---"--"-|
|--"--"---"--"---5--5---4--4---4--4---4--4---5--5---4--4-|
|--4--4---4--4---4--4---4--4---4--4---5--5---7--7---5--5-|
|--2--2---2--2-------------------------------------------|

|--------------------------------------------------------|
|--------------------------------------------------------|
|----------------"--"---"--"---"--"---"--"---"--"---"--"-|
|--"--"---"--"---5--5---4--4---4--4---4--4---5--5---5--5-|
|--4--4---4--4---4--4---4--4---5--5---5--5---7--7---7--7-|
|--2--2---2--2-------------------------------------------|

|--------------------------------------------------------|
|--------------------------------------------------------|
|----------------"--"---"--"---"--"---"--"---"--"---"--"-|
|--"--"---"--"---5--5---4--4---4--4---4--4---5--5---4--4-|
|--4--4---4--4---4--4---4--4---4--4---5--5---7--7---5--5-|
|--2--2---2--2-------------------------------------------|

|----------------------------  ----------------------------|
|----------------------------  ----------------------------|
|----------------"--"---"--"-  --"--"---"--"---"--"---"--"-| 1st,
|--"--"---"--"---4--4---4--4-  --5--5---5--5---4--4---4--4-| ending 
|--4--4---4--4---4--4---4--4-  --5--5---5--5---4--4---4--4-|
|--2--2---2--2---------------  ----------------------------|

			       ----------------------------|
                               ----------------------------|
                               sl"--"---"--"---"--"---"--"-| 2nd,
                               -/7--7---7--7---6--6---6--6-| ending.
                               -/5--5---5--5---4--4---4--4-|
                               ----------------------------|

Section 4.	Bridge.
|---------------------------------------------------------
|--"--"---"--"---"--"---"--"---"--"---"--"---"--"---"--"--
|--6--6---6--6---6--6---6--6---7--7---7--7---9--9---9--9--
|--6--6---6--6---6--6---6--6---7--7---7--7---9--9---9--9--
|--4--4---4--4---4--4---4--4---5--5---5--5---7--7---7--7--
|---------------------------------------------------------

|---------------------------------------------------------|
|--"--"---"--"---"--"---"--"---"--"---"--"---"--"---"--"--|
|--6--6---6--6---6--6---6--6---7--7---7--7---6--6---6--6--|  
|--4--4---4--4---4--4---4--4---5--5---5--5---4--4---4--4--| X4
|--4--4---4--4---4--4---4--4---5--5---5--5---4--4---4--4--|  
|---------------------------------------------------------|

Section 5a.	Interlude.(played As Above).
spaced unusually 4-E-Z-2-C. 
[ Tab from: http://www.guitartabs.cc/tabs/m/marduk/deme_quaden_thyrane_tab_ver_2.html ]
|--------------------------------------------------------------|
|-----------------<>trill--------------------------------------|
|--"--"---"--"----h-p-h-p-h-p-h-p----"--"---"--"---"--"---"--"-| 
|--6--6---6--6---6^7^6^7-6^7^6^7^6---4--4---4--4---5--5---5--5-| X2
|--4--4---4--4---4"--4"--4"--4"------5--5---5--5---7--7---7--7-|
|--------------------------------------------------------------|

|--------------------------------------------------------------|
|--------------------------------------------------------------|
|-----------------<>trill--------------------------------------|
|--"--"---"--"----h-p-h-p"---"---------------------------------| X2
|--4--4---4--4---4^5^4^5^4---4-------4-------------5-----------|
|--2--2---2--2---2"--2"--2---2-------5-------------7-----------|

Section 5b.
spaced unusually 4-E-Z-2-C. 
|--------------------------------------------------------------
|--------------------------------------------------------------
|--"--"---"--"---"---"---"---"-------"--"---"--"---"--"---"--"-
|--5--5---5--5---5---5---5---5-------4--4---4--4---4--4---4--4-
|--7--7---7--7---7---7---7---7-------5--5---5--5---2--2---2--2-
|--------------------------------------------------------------

|--------------------------------------------------------------|
|--"--"---"--"---"---"---"---"-------"--"---"--"---"--"---"--"-|
|--6--6---6--6---6---6---6---6-------7--7---7--7---4--4---4--4-|
|--4--4---4--4---4---4---4---4-------5--5---5--5---2--2---2--2-| X4
|--------------------------------------------------------------|
|--------------------------------------------------------------|

Section 5c.
spaced unusually 4-E-Z-2-C. 
|--------------------------------------------------------------
|--------------------------------------------------------------
|--------------------------------------------------------------
|--"--"---"--"---"---"---"---"-----sl"--"---"--"-sl"--"---"--"-
|--4--4---4--4---4---4---4---4------/7--7---7--7--\3--3---3--3-
|--2--2---2--2---2---2---2---2------/5--5---5--5--\1--1---1--1-

|--------------------------------------------------------------|
|------------------------------------"------"------"------"----|
|------------------------------------7------7------5------5----|
|--"--"---"--"---"---"---"---"-------5------5------3------3----|
|--4--4---4--4---4---4---4---4-------5------5------3------3----|
|--2--2---2--2---2---2---2---2-------.------.------.------.----|

|--------------------------------------------------------------
|--------------------------------------------------------------
|--------------------------------------------------------------
|--"--"---"--"---"---"---"---"-----sl"--"---"--"-sl"--"---"--"-
|--4--4---4--4---4---4---4---4------/7--7---7--7--\3--3---3--3-
|--2--2---2--2---2---2---2---2------/5--5---5--5--\1--1---1--1-

|--------------------------------------------------------------|
|--------------------------------------------------------------|
|------------------------------------"--"---"--"---"--"---"--"-|
|--"--"---"--"---"---"---"---"-------5--5---5--5---3--3---3--3-|
|--4--4---4--4---4---4---4---4-------5--5---5--5---3--3---3--3-|
|--2--2---2--2---2---2---2---2-------3--3---3--5---1--1---1--1-|

Section 5d.
spaced unusually 4-E-Z-2-C. 
|--------------------------------------------------------------|
|--"--"---"--"---"---"---"---"-------"--"---"--"---"--"---"--"-|
|--6--6---6--6---7---7---7---7-------4--4---4--4---2--2---4--4-|
|--4--4---4--4---4---4---4---4-------4--4---4--4---2--2---2--2-| X4
|--------------------------------------------------------------|
|--------------------------------------------------------------|

Section 5e.
spaced unusually 4-E-Z-2-C. 
|--------------------------------------------------------------|
|--------------------------------------------------------------|
|--"--"---"--"---"---"---"---"-------"--"---"--"---"--"---"--"-|
|--6--6---6--6---7---7---7---7-------4--4---4--4---2--2---4--4-| X4
|--4--4---4--4---4---4---4---4-------4--4---4--4---2--2---2--2-|
|--------------------------------------------------------------|

Section 6.	Back to 1/2Time.(as in Section 1.)
|--------------------------------------------------------------|
|--------------------------------------------------------------|
|--------------------------------------------------------------|
|--4-----------------------------------------------------------|
|--4-----------------------------------------------------------|
|--2-----------------------------------------------------------|

|--------------------------------------------------------------|
|--------------------------------------------------------------|
|-----------------------------sl---Slow-Gliss------------------|
|--4--------------------------/14--\-------------------------\-|
|--4--------------------------/14--\-------------------------\-|
|--2--------------------------/12--\-------------------------\-|

REPEAT:
Sections 1. and 2.
Hold Final Chord.

END
Comments