Marcy Playground - Shapeshifter Chords & Tabs

 

Shapeshifter Chords & Tabs

Marcy Playground Chords & Tabs

Version: 1 Type: Tab 0 ratings
1 star 2 stars 3 stars 4 stars 5 stars
comments

Shapeshifter Tab

   
Shapeshifter
 E5        A         D         E        B5     
e --------- ----0---- ----2---- ----0---  --------- 
B --------- ----2---- ----3---- ----0---- --------- 
G ----1---- ----2---- ----2---- ----1---- ----4---- 
D ----2---- ----2---- ----0---- ----2---- ----4---- 
A ----2---- ----0---- --------- ----2---- ----2---- 
E ----0---- --------- --------- ----0---- ----x----  

Riff 1:                              Riff 2:

e ---------------------------------- ----------------------------------
B ---------------------------------- ----------------------------------
G ---------------------------------- ----------------------------------
D ------------6--------------------- --------6------7p6---7p6-7p6------
A ----------7---7---0-5-4-5-4-5-7-7- ------7---7--7-----7---------7-7--
E --0(let ring)--------------------- --0-------------------------------

Riff 3:
[ Tab from: http://www.guitartabs.cc/tabs/m/marcy_playground/shapeshifter_tab.html ]
e ----------------------------------
B ----------------------------------
G ----------------------------------
D -------6-------7-6----------------
A -----7---7---7------7-5-----------
E --0---------------------7-5-3-----

Riff 4:

e ----------------------------------
B ----------------------------------
G --1-2-1---------------------------
D --------4-2-0---------------------
A --------------4-2-0---------------
E ----------------------------------

Riff 5:                              Riff 6:

e ---------------------------------- -------------------------
B ---------------------------------- -------------------------
G ---4/5--x------------------------- -------------------------
D ---4/5--x--5\4--x--4/5------------ --4/5--x--4/5--x---------
A ---2/3--x--5\4--x--4/5------------ --4/5--x--4/5--x---------
E -----------3\2--x--2/3------------ --2/3--x--2/3--x---------


(Riff 1, Riff 2, Riff 1, Riff 3)

E5
When I was standin' on the gallows
                             A
Nothing to say, I watched my sun... go down
E5
And light got dark around the edges
                           A              (Riff 4)
With no control I felt my soul... go down
D           E                A       D    
Comments