Marcy Playground - Shadow Of Seattle Chords & Tabs

 

Shadow Of Seattle Chords & Tabs

Marcy Playground Chords & Tabs

Version: 1 Type: Bass Tab 0 ratings
1 star 2 stars 3 stars 4 stars 5 stars
comments

Shadow Of Seattle Bass Tab

Shadow of Seattle
tabbed by Matt Marchain(DirectR3@aol.com)

Wait while John sings and plays guitar.
Bass comes in with drums.

  Main riff
G|--------------------------------------|
D|-4-6-7-6-4-2-----------4-6-7-6-4-2h4--|
A|-------------4-2-0--------------------|
E|--------------------------------------|
   Why                   Won't they let us be...
[ Tab from: http://www.guitartabs.cc/tabs/m/marcy_playground/shadow_of_seattle_btab.html ]
  Chorus?
G|-----------------------|
D|-----------------------|
A|-3---3-3---------------|
E|--------------2-2---2--|
   Light....

   Middle part
G|-----------------------------------------------------|
D|--4---2----7---5---4--2----7---5----4--2--7-5h7p7-4--|
A|-----------------------------------------------------|
E|-----------------------------------------------------|
   See them running heading homeward to Seattle

Comments