Marcy Playground - Sex Amp Candy Chords & Tabs

 

Sex Amp Candy Chords & Tabs

Marcy Playground Chords & Tabs

Version: 1 Type: Bass Tab 0 ratings
1 star 2 stars 3 stars 4 stars 5 stars
comments

Sex Amp Candy Bass Tab

marcy playground
sex and candy
album: marcy playground
submitted by m. burgess


This is exactly how the song goes, some of the timing may be 
off but the notes are exactly right. 

  

  

Verse 1 x - 4 Chorus x - 3 

|---------------------|-------------||--------------|------------|| 
|*--------------------|------------*||*-------------|-----------*|| 
|*-2--2-2-2-0-2-0-2-2-|------------*||*-(R-x2)-5--5-|-----------*|| 
|---------------------|-3--3--2--2--||--------------|-5--5--7--7-|| 

  

  

|----------|-----------|-----------|-----------|----------------| 
|----------|-----------|-----------|-----------|----------------| 
|----------|-----------|-----------|-----------|----------------| 
|-5-5-5--5-|-7--7-3--3-|-5--5-7--7-|-3--3-3--3-|-2-2-2-2-2-2-2-2| 

  

Verse 2 x - 4 Chorus X - 3 
[ Tab from: http://www.guitartabs.cc/tabs/m/marcy_playground/sex_amp_candy_btab.html ]
||---------------------|-------------||--------------|------------|| 
||*--------------------|------------*||*-------------|-----------*|| 
||*-2--2-2-2-0-2-0-2-2-|------------*||*-(R-x2)-5--5-|-----------*|| 
||---------------------|-3--3---2-2--||--------------|-5--5--7--7-|| 

  

x - 2 

||--------|-----------|-----------|-------||---------|-----------------| 
||*-------|-----------|-----------|------*||---------|-----------------| 
||*-------|-----------|-----------|------*||---------|-----------------| 
||---5--5-|-7--7-3-3-3|-5--5-7--7-|-3--3- ||-3-3-3-3-|-2-2-2-2-2-2-2-2-| 

  

  

Verse 3 x - 4 Chorus X - 3 

||---------------------|--------------||--------------|------------|| 
||*--------------------|-------------*||*-------------|-----------*|| 
||*-2--2-2-2-0-2-0-2-2-|-------------*||*-(R-x2)-5--5-|-----------*|| 
||---------------------|-3--3---2--2--||--------------|-5--5--7--7-|| 

  

until the end of the song 

||--------------|-----------|| 
||*-------------|----------*|| 
||*-(R-x2)------|----------*|| 
||---------5--5-|-7--7-3--3-|| 

  

  

Explinations - || 

||* Repeat-follow the number above the staff 

||* 

|| 

  

(R-x#) Rest times the number
Comments