Marcy Playground - Poppies Chords & Tabs

 

Poppies Chords & Tabs

Marcy Playground Chords & Tabs

Version: 4 Type: Tab

Poppies Tab

There aren't any decent tabs for this song i decided to submit one: 

Intro: e-------------------------|  
       b-------------------------|
       g-------------------------|  (x4) *this part sounds a bit funny at
       d---6------7p6-----9------|        first but once you get used to 
       a---------------7---------|        the timing and getting the attack
       e------0---------------0--|        right it should sound great. 
[ Tab from: http://www.guitartabs.cc/tabs/m/marcy_playground/poppies_tab_ver_4.html ]
Verse: e-------------------------------|------------------------------|
       b-------------------------------|------------------------------|
       g-------------------------------|------------------9--9-9-9-9--|
       d--9--9--9-9-9-9-9-9-9-9-9-9-9-9|---7---7--x-x-x(7)9--9-9-9-9--|
       a--9--9--9-9-9-9-9-9-9-9-9-9-9-9|---7---7--x-x-x(7)7--7-7-7-7--|
       e--7--7--7-7-7-7-7-7-7-7-7-7-7-7|---5---5--x-x-x(5)------------|
 

       e------------------------------|
       b------------------------------|
       g------------------------------|     Play Verse twice then repeat the 
       d--9--9--9-9-9-9-9-9-9-9-9-9---|     intro, listen to the song to get
       a--7--7--7-7-7-7-7-7-7-7-7-7---|     the timing. 
       e--7--7--7-7-7-7-7-7-7-7-7-7---|    

Good luck! Any comments or corrections please email me @ sefjaguar@hotmail.co.uk