Marcy Playground - Pigeon Farm Chords & Tabs

 

Pigeon Farm Chords & Tabs

Marcy Playground Chords & Tabs

Version: 2 Type: Tab 0 ratings
1 star 2 stars 3 stars 4 stars 5 stars
comments

Pigeon Farm Tab

   
Pigeon Farm
Marcy Playground
Shapeshifter
Standard Tuning (recorded pitch shifted slightly higher)
      D         Bm        A         G        
e ----2---- ----2---- ----0---- ----3----  
B ----3---- ----3---- ----2---- ----0----  
G ----2---- ----4---- ----2---- ----0----  
D ----0---- ----4---- ----2---- ----0----  
A ----0---- ----x---- ----0---- ----2----  
E ----x---- ----x---- ----0---- ----3----

D             Bm       A            

D            Bm      A
If you can see in my eyes
D                 Bm     A 
I'll show you darlings a prize
           D                 G
There is a place, there is a fortune
                  D
There's everything
          A                D
I want to share it with my friends

(chorus)
A                        D
    Please don't be so afraid
A                     D
    There's nobody in-sane
D          F#        G
    Yea-ah,  yea-ah,  on the pigeon farm
D          F#       G
    Yea-ah,  yea-ah,  on the pigeon farm
D          F#       G
    Yea-ah,  yea-ah,  on the pigeon farm, boy

[ Tab from: http://www.guitartabs.cc/tabs/m/marcy_playground/pigeon_farm_tab_ver_2.html ]
D               Bm        A
Out where the sun's in my eyes
    D               Bm          A
And out where the hills hit the skies
           D                 G
There is a place, there is a fortune
                      D
There's everything to
            A             D
Help you fit in with everyone
(chorus)

Solo
e----------10-------------------------------10---------------------------------
B-------10------12-------10h12p10--------10------12-------10h12p10--10-10------
G----11--------------11---------------11--------------11------------------12-11
D-12-------------------------------12------------------------------------------
A------------------------------------------------------------------------------
E------------------------------------------------------------------------------

e------------------------------------------------------------------------------
b---------------------------------------10-12----------------------------------
G-11-11-9-9-----10-10-9-9------11-11-11-------11-9-----------------------------
D-----------12------------12-----------------------12--------------------------
A------------------------------------------------------------------------------
E------------------------------------------------------------------------------
(chorus)

End on D











Comments