Marcy Playground - Bye Bye Chords & Tabs

 

Bye Bye Chords & Tabs

Marcy Playground Chords & Tabs

Version: 1 Type: Bass Tab 0 ratings
1 star 2 stars 3 stars 4 stars 5 stars
comments

Bye Bye Bass Tab

   
Artist: Marcy Playground
Song: Bye Bye
Album: Shapeshifter

Intro:
G-----------------------------------------
D-----------------------------------------
A-555 7-777-555-7-777-555-7-777-555-7-777-
E-----------------------------------------

Verse:
G---------------------------------------------------------
D---------------------------------------------------------
A-555 7-777-555-7-777-555-7-777-55555555------------------
E----------------------------------------55555555-33333333

G-----------------------------------------------------------------
D-----------------------------------------------------------------
A-555 7-777-555-7-777-555-7-777-55555555--------------------------
E----------------------------------------55555555-3333333333333333

Chorus:
G---------------------------------------------------------------------
D---------------------------------------------------------------------
A-----7-777-----5-555-----7-777-----5-555-----7-777-----5-555---------
E-555-------333-------555-------333-------555-------333-------33333333

Verse:
G---------------------------------------------------------
D---------------------------------------------------------
A-555 7-777-555-7-777-555-7-777-55555555------------------
E----------------------------------------55555555-33333333
[ Tab from: http://www.guitartabs.cc/tabs/m/marcy_playground/bye_bye_btab.html ]
G-----------------------------------------------------------------
D-----------------------------------------------------------------
A-555 7-777-555-7-777-555-7-777-55555555--------------------------
E----------------------------------------55555555-3333333333333333


Chorus:
G---------------------------------------------------------------------
D---------------------------------------------------------------------
A-----7-777-----5-555-----7-777-----5-555-----7-777-----5-555---------
E-555-------333-------555-------333-------555-------333-------33333333

G---------------
D---------------
A-------55555555
E-33-55---------

Solo ( Chorus ):
G---------------------------------------------------------------------
D---------------------------------------------------------------------
A-----7-777-----5-555-----7-777-----5-555-----7-777-----5-555---------
E-555-------333-------555-------333-------555-------333-------33333333

G---------------
D---------------
A-------55555555
E-33-55---------

Chorus 2x:
G-------------------------------------------------------------
D-------------------------------------------------------------
A-----7-777-----5-555-----7-777-----5-555-----7-777-----5-555-
E-555-------333-------555-------333-------555-------333-------

G---------------
D---------------
A-------55555555
E-33-55---------

G-------------------------------------------------------------
D-------------------------------------------------------------
A-----7-777-----5-555-----7-777-----5-555-----7-777-----5-555-
E-555-------333-------555-------333-------555-------333-------

Ending ( Struming in a free time feel )
G--------------
D--------------
A--------------
E-55-55-55-55-5
Comments