Marcus Miller - Moons Chords & Tabs

 

Moons Chords & Tabs

Marcus Miller Chords & Tabs

Version: 1 Type: Bass Tab 0 ratings
1 star 2 stars 3 stars 4 stars 5 stars
comments

Moons Bass Tab

   
    Moons - Bass Tab

  Transcribed and tabbed by Joe Britton

 Artist - Marcus Miller
 Album  - The Sun Don't Lie		  	
 Track  - Moons
 
  Comments, Questions E-mail - Larrylaffer_uk@yahoo.co.uk

 4
 4
G|----9-----11\--|----7---7\6/7-------7-----|--9----11\---|
D|---------------|-----------------\9----9--|-------------|
A|---------------|--------------------------|-------------|
E|---------------|--------------------------|-------------|
B|---------------|--------------------------|-------------|


G|---7-----6\5/6--|--12h13--13---12\11/12--------|--15--15--/14-|
D|------4---------|------------------------15-13-|--------------|
A|----------------|------------------------------|--------------|
E|----------------|------------------------------|--------------|
B|----------------|------------------------------|--------------|



G|---10----12-13-/12--\8--|--5h6---5h6p5-----10\9/10----|
D|------------------------|--------------8--------------|
A|------------------------|-----------------------------|
E|------------------------|-----------------------------|
B|------------------------|-----------------------------|



G|--8h9---9\8/9---------9---/11--|--\7h9--7-------7----|
D|----------------10-12----------|-----------x-/9---9--|
A|-------------------------------|---------------------|
E|-------------------------------|---------------------|
B|-------------------------------|---------------------|



G|--9--9\8/9----8-9-14---/11\--|--7---11\6--|--13-----13\12---------|
D|-----------------------------|------------|-----------------15-13-|
A|-----------------------------|------------|-----11--11\10---------|
E|-----------------------------|------------|-----------------------|
B|-----------------------------|------------|-----------------------|



G|--/15---15\14--|------17-19-17--15\-11------|--------14\-11\10/\11----|
D|---------------|--/19------------------12-x-|-/14-14----------------5-|
A|--------13\12--|----------------------------|-------------------------|
E|---------------|----------------------------|-------------------------|
B|---------------|----------------------------|-------------------------|



G|----------------------|------------------------|--------4--4/6\4--|
D|----------------------|---------------4----4-x-|------------------|
A|--3-3-----1-3-----3-x-|-4-4-4------------------|-2-2-2-----2/4\2--|
E|--------3-------------|------------2-----------|------------------|
B|--------------1-------|----------2-------------|------------------|
          
                                    ____ _______ ____
                                    | -| |-|-|-| |- r  r
                                    |. | | | | | | .|  |
G|-------------------------|-----|------------------------|
D|-----------------6-------|-----|------------------------|
A|--4---4---4----4-----7-6-|-----|------------------------|
E|-------------2-----------|-----|------------------------|
B|----2--------------------|--3--|--3--3-3-3-3-3-3--------|

    _________  _______     ___    ____ _______ ____
    r-|=|-|-|  |-|-|-|  r  | r    | -| |-|-|-| |- r  r
    | | | | |  | | | |  |  | |    |. | | | | | | .|  |
G|-----------------------------|-----------------------|
D|-----------------------------|-----------------------|
A|-----------------------------|-----5-----------------|
E|-----------------------------|-----------------------|
B|----1-1-1-3--3-5-5-5-----3---|--3----3-3-3-3-3-------|

    _________  _______  ____          ____ _______ ____  ____
    r-|=|-|-|  |-|-|-|  |- r   |      | -| |-|-|-| |- r  r- |
    | | | | |  | | | |  | .|   |      |. | | | | | | .|  | .|
G|---------------------------------|----------------------------|
D|---------------------------------|-----------------------/10--|
A|---------------------------------|----------------------------|
E|-----------------------------/5--|----------------------------|
B|----1-1-1-3--3-3-3-5--5----------|--3--3-3-3-3-3-3------------|

    ______ _______ ____  _______    _____  _______ ____
    r  |=| |-|-|-| |- r  |-|-|-|    |  -|  |-|-|-| |- r  r
    |. | | | | | | | .|  | | | |    |.  |  | | | | | .|  |
G|---------------------------7-7-|-(7)---------------------|
D|-------------------------------|-------------------------|
A|-------------------------------|-------------------------|
E|-------------------------------|-------------------------|
B|-----3-3-3-3-3-5-5-----3-3-----|------3--3-3-3-3-3-------|



G|--------------------10-12/13--|-12--9------------------12-|
D|-----------10-11-13-----------|-------9-----------9-10----|
A|--10-11-13--------------------|----------12-12~-----------|
E|------------------------------|---------------------------|
B|------------------------------|---------------------------|



G|--11-----9-9\8/9---------16-|-(16)-------11---9-----------11-|
D|----------------------------|-----------------------12-14----|
A|-------------------14-15----|-------8-9----------------------|
E|----------------------------|---------------8----------------|
B|-----12---------------------|--------------------------------|



G|----11------11\6--|-----13----------------------------10-12--
D|-14----12---------|--15----15------------------10-12---------
A|------------------|-----------16---------10-13---------------
E|------------------|--------------14--------------------------
B|------------------|-----------------16-----------------------



G--10-------|--------------------------------------14-17--19--14-17-|
D-----12----|-----------------10-------------14-17------------------|
A--------13-|--11-11-11-11-11----12----15-17------------------------|
E-----------|-------------------------------------------------------|
B-----------|-------------------------------------------------------|



G|--12-13---10----13------12\11---12----10-8-----|---------8--------|
D|-------------11----11--(11)\10--11---------11--|-10-10-8----------|
A|-----------------------------------------------|------------8\7/8-|
E|-----------------------------------------------|------------------|
B|-----------------------------------------------|------------------|



G|-----------------16----------16----------16h17--------16-16----------
D|-----------14-17----17-14-------17-14----------14-----------17-14----
A|--17-14-15----------------15----------15----------15--------------15-
E|---------------------------------------------------------------------
B|---------------------------------------------------------------------



G--16-----------|-16-16---------------------------------------------
D-----17-14-----|-------16-x-----14-16----14------------------------
A-----------15--|------------17--------17----14---12-14----12-------
E---------------|---------------------------------------14----12-14-
B---------------|---------------------------------------------------



G------------|-------------------------9-11-----------------------
D------------|----------9-11------9-11---------------------9-10-9-
A------------|--11-9-11--------11------------0----------10--------
E-----12-----|-----------------------------------10-8-7-----------
B--15----12--|----------------------------------------------------



G-----------------|-11--------------------------------------------
D-----------10-12-|----11----11-12--------------------------------
A--12-10-12-------|-------11-------13-12-------------------12-----
E-----------------|----------------------15-14-13-12-10-10----11--
B-----------------|-----------------------------------------------


G-------------------------------------------------|------
D-----------11-13---------------------------------|------
A-----11-13------------13-11----11-13-------------|------
E--14------------------------14-------14-11-------|------
B-------------------------------------------14-12-|--11--



G----------------17-19-20----|------------14\-------------------------|
D-------------------------17-|-19-18-17----------------17-14-15-14----|
A-----------13---------------|----------------------15-------------15-|
E--11----13------------------|----------------13-15-------------------|
B-----11---------------------|----------------------------------------|


[ Tab from: http://www.guitartabs.cc/tabs/m/marcus_miller/moons_btab.html ]
G|-----------------19-24\---------------------------20-----------|
D|--------------19----------------------------17-20----20-17-----|
A|--13----17-18-------------------------18-20----------------20--|
E|-------------------------------15-18---------------------------|
B|-------------------------16-18---------------------------------|



G|----------------14-16--11\10/11~---10-11-|-12-/16-12-----------------|
D|-------------13--------------------------|-----------13-12/13-12---5-|
A|-19-------13-----------------------------|---------------------------|
E|-------14--------------------------------|---------------------------|
B|-----------------------------------------|---------------------------|



G|-----------------|------4/6\4--|----------13-------|---|
D|----------/6\----|-------------|-------------------|---|
A|--4--------------|--2---2/4\2--|--4-----4/11---7-6-|---|
E|-------2-------2-|-------------|-------------------|---|
B|----2------------|-------------|-----2-------------|-3-|



G|--------------7------|--------7-9----------------|-----------------
D|-------7-9-10---9-7--|-7-9-10-----10-9-10-7------|--------7-9------
A|---------------------|---------------------------|-7-9-10-----10-7-
E|---------------------|---------------------------|-----------------
B|---------------------|---------------------------|-----------------



G-------------9--------|-------------------7----------------------------|
D---------7-9---7------|-------------7-8-9---9-10-------9-7--------10\8-|
A--7-9-10---------10---|--7-6-7-9-10--------------7-8-9-----7-----------|
E----------------------|--------------------------------------10-8------|
B----------------------|------------------------------------------------|



G|---------7-x-7\5---|--11-x-11\9---11-9-------------2-|-1h2-----------
D|--7----7-----------|-------------------12-10-9-8-----|-----3h4-------
A|-------------------|--------9\7----------------------|---------/5-3--
E|-------------------|---------------------------------|---------------
B|-------------------|---------------------------------|---------------



G-----------------|--------------------3/7-|-(7)-7-7-7-7-7--9---------
D-----------------|------------------2-----|------------------10-9-7--
A----2h3p2p0-2----|--------------2---------|--------------------------
E--0-----------0--|----0--X-x-X----3-------|--------------------------
B-----------------|--0---------------------|--------------------------


                                     this bits a bit messy
G-----------|---------12-11-9---------------------------|
D--7-7-7-7--|--7--9-------------------------------------|
A-----------|---------10--9-7---0-0-0-0-1-0-0-0-2-0-0-0-|
E-----------|-------------------------------------------|
B-----------|-------------------------------------------|



G|-------------------------------------------------------------|
D|-------------------------------------------------------------|
A|-3-0-0-0-4-0-0-0-5-0-4-0-0-0-3-3-3-3-3-3-3-0-0-0-2-0-0-0-3-0-|
E|-------------------------------------------------------------|
B|-------------------------------------------------------------|



G|-----------------------------------------------------------------|
D|-----------------------------------------------------------------|
A|-3-0-4-0-0-0-5-0-0-0-4-0-0-0-3-0-0-0-2-0-3-0-0-0-2-0-0-0-3-0-0-0-|
E|-----------------------------------------------------------------|
B|-----------------------------------------------------------------|


          (not certain about this lick)
G|--------------------------------------16-19-24-----
D|--------------------------------16-17--------------
A|-5------------------------14-17--------------------
E|---0-------------14-17-15--------------------------
B|------7-9/-15-17-----------------------------------



G--------------|------------------------------------------------
D--------------|-------7-9-10-9---------------------------------
A---------9-10-|-8-9-9----------10-7-----------------------7-10-
E--7-8-10------|---------------------10-8-7-----------7-10------
B--------------|----------------------------10-----10-----------



G-----------------|--9\8/9--8---7---6---5---0--------------0-----|
D----7-9-10-9-----|-----------9---8---7---6---3-2-1-0------------|
A--9----------10--|-----------------------------------4-3----2p0-|
E-----------------|----------------------------------------------|
B-----------------|----------------------------------------------|



G|-----------------2------------------------0-----|
D|-------2-5-3-4-4---4-2p0----4-4-4-4-4-4-4---2---|
A|-2-3-5------------------------------------------|
E|------------------------------------------------|
B|------------------------------------------------|



G|--------7-------9----------11----------12----------14----16----17-
D|--7-7-7---9-9-9---10-10-10----12-12-12----14-14-14----16----17----
A|------------------------------------------------------------------
E|------------------------------------------------------------------
B|------------------------------------------------------------------


G-----19-24-|---16-14-------------14----12-10----------12\11--|
D--19-------|---------17-14-------------------12-10-----------|
A-----------|---------------17-15-------------------13--------|
E-----------|-------------------------------------------------|
B-----------|-------------------------------------------------|



G|--/11--------3h4-------2------2-------|-------9---------------------|
D|------12-9-------5-2-5------3---3-0-3-|-3h5/----7-------------------|
A|--------------------------------------|---------------5-------------|
E|--------------------------------------|-----------7-5---5-2-3-3-3-2-|
B|--------------------------------------|-----------------------------|


                                  t         t
G|------9h11-11p9-9----9h11p9----14p11p9h11-14p11p9--11-9--|
D|------10---10---------------10---------------------------|
A|---------------------------------------------------------|
E|---------------------------------------------------------|
B|--3------------------------------------------------------|



G|----------11-11\9-12--12-11-14-13-9---------------------------------
D|-------------------------------------9--------------------10-12-13--
A|-----------9--9-7-10--10-9--12-11-7--------------10-11-13-----------
E|--2-0--------------------------------7-----11-13--------------------
B|------3--------------------------------0----------------------------


G--10-12-|---13--13--11h12\11/12---10h11p10----|--14h15--15--13h14p13h14-|
D--------|----------------------------------13-|-------------------------|
A--------|-------------------------------------|-------------------------|
E--------|-------------------------------------|-------------------------|
B--------|-------------------------------------|-------------------------|

                                                      2
                                                      4
G|------17-19-17---15\11-------|----------14\11\10/11-|------/10-|
D|--/19------------------12--x-|-13h14-14-------------|----------|
A|-----------------------------|----------------------|----------|
E|-----------------------------|----------------------|----------|
B|-----------------------------|----------------------|----------|


 4
 4
G|--9---10h11\7--|--7h9-7-----------7---|-9--9\8/9---8-9-14-10h11-|
D|---------------|----------x-7h8h9---9-|-------------------------|
A|---------------|----------------------|-------------------------|
E|---------------|----------------------|-------------------------|
B|---------------|----------------------|-------------------------|



G|--(11)--9\7-7----11\10/11--|--13-13-11h12---10h11p10----|
D|---------------------------|-------------------------13-|
A|---------------------------|----------------------------|
E|---------------------------|----------------------------|
B|---------------------------|----------------------------|



G|--14h15--15--/14\12\10--|---10--12h13-11h12\8--|--5h6--5h6p5---10--|
D|------------------------|----------------------|-------------8-----|
A|------------------------|----------------------|-------------------|
E|------------------------|----------------------|-------------------|
B|------------------------|----------------------|-------------------|
Comments