Marcera - Burial Chords & Tabs

 

Burial Chords & Tabs

Marcera Chords & Tabs

Version: 1 Type: Tab 0 ratings
1 star 2 stars 3 stars 4 stars 5 stars
comments

Burial Tab

   
This is my first tab so I figured I'd do it on my own band. Maybe you can listen to the
song and figgure it out. Good luck!

Marcera
"Burial"

-D-
-A-
-D-
-G-
-B-
-E-

 (guitar 1- intro)
/------------------------------------------------------ /
/------------------------------------------------------o/
/------------------------------------------------------ /
/-5-5-5-5---6-6-6-6-6---5-5-5-5-5---3-3-3-------------- /
/-3-3-3-3---3-3-3-3-3---3-3-3-3-3---1-1-1---8-8-8------o/
/-----------------------3-3-3-3-3---1-1-1---6-6-6------ /
  *         * *         * *         * *     * *

  (gutar 2- intro)
/--------/
/--------/
/--------/         Once the guitar 1 intro riff is played twice both gutars 
/-5--5---/         do a gnarly pic scrape.
/-3--3---/
/--------/


/--------------------------/-------/------------------/
/--------------------------/-------/------------------/
/--------------------------/-------/------------------/
/-9-9-9-9-9-9-9-9----------/-------/------------------/
/-5-5-5-5-5-5-5-5---8-8-8--/-6---3-/--10--------------/
/-5-5-5-5-5-5-5-5---6-6-6--/-6---3-/---8--------------/
  * * * * * * * *   * * *    
  That's the intro......now comes the fun part.

(verse #1)
/---------------------- /
/----------------------o/
/---------------------- /
/---------------------- /
/----------------------o/
/-8-----10-----12------ /
  *     *      *
  36x   16x    16x


   stuck in the cycle.....
/-------------------------------------------------/
/------------------------------------------------o/
/-------------------------------------------------/
/-13-13-13-13-13-13-12-12-12-12-12-12-10-10-10-10-/ 
/------------------------------------------------o/
/-------------------------------------------------/

/-------------------------------------------------/------------/ 
/-------------------------------------------------/------------/
/-------------------------------------------------/------------/
/12-12-12-12-12-12-10-10-10-10-10-10--------------/-15-15-15-15/
/-----------/------------------------------------12-12-12-12--/------------/
/-------------------------------------------------/------------/
                                                       4x


   (bridge)
/----------------------------------------------------------------/
/---------------------------------------------------------------o/
/----------------------------------------------------------------/
/-9-9-9-9-9-9--10-10-10-10-10-10-10-10-10-10-10-10-7-7-7-5-3-0---/
/-5-5-5-5-5-5--6--6--6--6--6--6--8--8--8--8--8--8--3-3-3-3-3-0--o/
/-5-5-5-5-5-5--6--6--6--6--6--6--8--8--8--8--8--8--3-3-3-3-3-0---/


 (chorus)
/--------------------------------/
/-------------------------------o/
/--------------------------------/
/-5-5--6-6--5-5--3-3-3-----------/
/-3-3--3-3--3-3--1-1-1--8-8-0---o/
/-5-5--6-6--3-3--1-1-1--6-6-0----/

/--------------------------------------------------/
/-------------------------------------------------o/
/--------------------------------------------------/
/-5-5-0--3-1-0--6-6-0--3-1-0--5-5-0--3-3-3---------/
/-3-3-0--3-1-0--3-3-0--3-1-0--3-3-0--1-1-1--8-8-0-o/
/-5-5-0--3-1-0--6-6-0--3-1-0--3-3-0--1-1-1--6-6-0--/

    You can't run from yourself.....
/--------------/-------------/----------------/-----------------/
/--------------/-------------/----------------/-----------------/
/--------------/-------------/----------------/10-10-10-8--7----/
/-9-9-9-9-9-9--/-------------/----------------/---------------0-/
/-5-5-5-5-5-5--/-8-8-8-6-5-0-/-8-8-8-10-10-10-/-8--8--8-6--5--0-/
/-5-5-5-5-5-5--/-------------/----------------/---------------0-/

/-------------------/-----/
/-------------------/-----/
/-10-10-10-12-12-13-/-----/
/-------------------/-12--/
/-8--8--8--10-10-11-/-----/
/-------------------/-10--/
                      10x


[ Tab from: http://www.guitartabs.cc/tabs/m/marcera/burial_tab.html ]
  (verse #2)
/---------------------------------------------------------------------------
/---------------------------------------------------------------------------
/---------------------------------------------------------------------------
/-13-13-13-12-12-12-13-13-13-12-12-12---13-13-13-12-12-12-15-15-15-15-15-15-
/-10-10-10-10-10-10-10-10-10-10-10-10---8--8--8--8--8--8--12-12-12-12-12-12-
/-10-10-10-10-10-10-10-10-10-10-10-10---8--8--8--8--8--8--12-12-12-12-12-12-
  If seeing is believing then I believe in nothing......
/--------------------------------------------------------------------------
/--------------------------------------------------------------------------
/-------------------13-13-13-12-12-12--------------------------------------
/-13-13-13-12-12-12-**-**-**-**-**-**--13-13-13-12-12-12-15-15-15-15-15-15-
/-10-10-10-10-10-10-10-10-10-10-10-10--8--8--8--8--8--8--12-12-12-12-12-12-
/-10-10-10-10-10-10-10-10-10-10-10-10--8--8--8--8--8--8--12-12-12-12-12-12-

/--------------------------------------------------------------------------
/--------------------------------------------------------------------------o
/--------------------------------------------------------------------------
/-13-13-13-12-12-12-13-13-13-12-12-12--13-13-13-12-12-12-15-15-15-15-15-15-
/-10-10-10-10-10-10-10-10-10-10-10-10--8--8--8--8--8--8--12-12-12-12-12-12-o
/--------------------------------------------------------------------------
  stuck in the cycle......

  (bridge)
/----------------------------------------------------------------/
/---------------------------------------------------------------o/
/----------------------------------------------------------------/
/-9-9-9-9-9-9--10-10-10-10-10-10-10-10-10-10-10-10-7-7-7-5-3-0---/
/-5-5-5-5-5-5--6--6--6--6--6--6--8--8--8--8--8--8--3-3-3-3-3-0--o/
/-5-5-5-5-5-5--6--6--6--6--6--6--8--8--8--8--8--8--3-3-3-3-3-0---/

/---/
/---/
/-5-/
/---/ *played with an echo effect.
/-3-/
/---/

Whole break down played with echo effect.

/--------------/
/-------------o/
/--------------/
/----------3---/
/-3--6--5-----o/
/--------------/


/--------------------------/
/--------------------------/
/---------------------11h--/
/--------------------------/
/-3--5-6---8-10---11-------/
/--------------------------/

repeat the part underneath all 3 times.   1st,3rd time    2nd time
/-------------------------------/       /-------------/---------------/
/-------------------------------/       /-------------/---------------/
/-----------12-12-12--10-10-10--/       /-------------/---------------/
/-10-10-10----------------------/       /-12-13-12----/---------13-12-/
/-------------------------------/       /----------13-/-10-12-13------/
/-------------------------------/       /-------------/---------------/


/------------------------------------/
/-------------------11---------------/
/----------12-12-12----12------------/
/-10-10-10----------------13p-12--10-/
/---------------------------------10-/
/---------------------------------10-/


  Bury! My! Face!
/--------------------------------/
/-------------------------------o/
/--------------------------------/
/-5-5--6-6--5-5--3-3-3-----------/
/-3-3--3-3--3-3--1-1-1--8-8-0---o/
/-5-5--6-6--3-3--1-1-1--6-6-0----/

/--------------------------------------------------/
/-------------------------------------------------o/
/--------------------------------------------------/
/-5-5-0--3-1-0--6-6-0--3-1-0--5-5-0--3-3-3---------/
/-3-3-0--3-1-0--3-3-0--3-1-0--3-3-0--1-1-1--8-8-0-o/
/-5-5-0--3-1-0--6-6-0--3-1-0--3-3-0--1-1-1--6-6-0--/



  You can't run from yourself.....
/--------------/-------------/----------------/-----------------/
/--------------/-------------/----------------/-----------------/
/--------------/-------------/----------------/10-10-10-8--7----/
/-9-9-9-9-9-9--/-------------/----------------/---------------0-/
/-5-5-5-5-5-5--/-8-8-8-6-5-0-/-8-8-8-10-10-10-/-8--8--8-6--5--0-/
/-5-5-5-5-5-5--/-------------/----------------/---------------0-/

/-------------------/-----/
/-------------------/-----/
/-10-10-10-12-12-13-/-----/
/-------------------/-12--/
/-8--8--8--10-10-11-/-----/
/-------------------/-10--/
                      10x



 Well, that was my first tab! I'm finally done. If you know the song the tab is easy and
very self explanitory. If you don't know the song you should listen to it and learn how
to play it. It is a very good song and a very good excersise for you hands and should
improve your playing skills in verious ways...And yes the song is technical so.....good
luck once again. I hope you figgure is out.
Comments