Marc Velasco - Ordinary Song Chords & Tabs

 

Marc Velasco Chords & Tabs

Version: 1 Type: Tab 0 ratings
1 star 2 stars 3 stars 4 stars 5 stars
comments

Ordinary Song Tab

   
MGA PARE TO NA YONG INTRO NG ORDINARY SONG
SANA MAG-INJOY KAYO SA GINAWA KONG TAB.
     C        Am       Dm       G
e--------0--------5-------1----------------------------|
B---------1--------5-----3--3--------33----------------|
G-----0----0--------5---2-----2-------4----------------|
D---2-----------7------0-----------5-------------------|
A-3------------7------------------5--------------------|
E-------------5------------------3---------------------|

e-------8------5-------1--------------------------------|
B------8--------5-----3--3--------33--------------------|
G-----9----------5---2-----2-------4--------------------|
D---10-------7------0------------5----------------------|
A--10-------7-------------------5-----------------------|
E-8--------5-------------------3------------------------|

KONG MERON KAYONG MAY MALI PLS....EMAIL NIYO LNG AKO SA
GUITARPLAY_BOY@YAHOO.COM
[ Tab from: http://www.guitartabs.cc/tabs/m/marc_velasco/ordinary_song_tab.html ]
Comments