Marc Seal - Strat Boogie Chords & Tabs

 

Strat Boogie Chords & Tabs

Marc Seal Chords & Tabs

Version: 1 Type: Tab 0 ratings
1 star 2 stars 3 stars 4 stars 5 stars
comments

Strat Boogie Tab

This is a cool song to play. It might be a little tough to play at first, but it gets easy.

---------------------------------------------------------------|
---------------------------------------------------------------|
---------------------------------------------------------------|
---------------------------------------------------------------|
------------5-p-0---3-p-0-----------------3--------------------|
--o-h-3-p-0-----------------3-p-0---5-6-7---5------------------|

[ Tab from: http://www.guitartabs.cc/tabs/m/marc_seal/strat_boogie_tab.html ]
---------------------------------------------------------------|
---------------------------------------------------------------|
---------------------------------------------------------------|
---------------------------------------------------------------|
-------------5-p-0---3-p-0-------------------------------------|
--0-h-3-p-0-----------------3-p-0---5-6-7---3------------------|


---------------------------------------------------------------|
---------------------------------------------------------------|
---------------------------------------------------------------|
---------------------------------------------------------------|
-------------5-p-0----3-p-0-----------------3------------------|
--0-h-3-p-0------------------3-p-0---5-6-7----5----------------|

---------------------------------------------------------------|
---------------------------------------------------------------|
---------------------------------------------------------------|
---------------------------------------------------------------|
--3-5-5-3---3--------------------------------------------------|
----------5---5-3-0-0-0----------------------------------------|

one last thing. this song is played in drop D
Comments