Mantic - Fearghal Schmack Out Chords & Tabs

 

Fearghal Schmack Out Chords & Tabs

Mantic Chords & Tabs

Version: 1 Type: Tab 0 ratings
1 star 2 stars 3 stars 4 stars 5 stars
comments

Fearghal Schmack Out Tab

Title - Fearghal Shmack Out

Artist - Mantic

Guitar - Kev


I have tabbed this out for anyone that wants it..its from the EP version of fearghal!
When i play most of our songs live i never intentionally try to play them the same each time
this is my way of keeping things fun and keeps the song fresh everytime its heared live...
but make it makes it a bitch to tab!....enjoy ;)


x - Mute
~ - Vibrato
¬ - Whammy bar
/ - Slide up
 - Slide down
^ - Bend up or down to note
h - Hammer on
p - Pull off
| - start and end of a verse, choruse, solo etc




Intro I

wDistortion, slight compression

 E |------------------------x--x----------------------x--x-- x3 
 B |------------------------7--9----------------------9--7--  
 G |------------------------7--x----------------------x--7--  
 D |------------------------7--9----------------------9--7--  
 A |--9-9-x-7-9-9-x-7-9-9-x-5--7--9-9-x-7-9-9-x-7-9-9-7--5-- 
 E |------------------------x--x----------------------x--x-- 

Intro part II

wDistortion, slight compression

 E  -------------------------------------------------------------| x1
 B  -------------------------------------------------------------|
 G  ------------------------------9------------------------------|
 D  ------------------------9-/11--------------------------------|
 A  --99xx-7-7-h9x9-7-h9x9-----------9-9-9-x-77-h9-9-9-x-9-9-etc-|
 E  -------------------------------------------------------------|



Main Riff 


wDistortion, slight compression
                                  
 E |-----------------------------------------------999---
 B |------11-11-9-9-99------9-------99------9-9-xx-999---
 G |------11-11-9-9-99------9--8-/9-99-8-/9-9-9-xx-999---
 D |-------------------9-11------------------------------
 A |--9-9------------------------------------------------
 E |-----------------------------------------------------

                                     
 E  --------------------------------------------xx-121212-| x2
 A  ------11-11-9-9-99------9-------99------9-99xx-121212-|
 D  ------11-11-9-9-99------9--8-/9-99-8-/9-9-99xx-9-9-9--|
 G  -------------------9-11-------------------------------|
 B  --9-9-------------------------------------------------|
 E  ------------------------------------------------------|


Verse I

Clean wCompression

 E |--9-----9-9--xx-9-----9-9--xx-9-----xx--9-----9-9--xx-9-----9-9--999--| x2
 B |--9-h10-1010-xx-9-h10-1010-xx-9-h10-xx--9-h10-1010-xx-9-h10-1010-999--|
 G |--9-h11-1111-xx-9-h11-1111-xx-9-h11-xx--9-h11-1111-xx-9-h11-1111-999--|
 D |--9-----9-9--xx-9-----9-9--xx-9-----xx--9-----9-9--xx-9-----9-9--999--|
 A |----------------------------------------------------------------------|
 E |----------------------------------------------------------------------|

Verse II

Clean wCompression

 E |----9-----9-9--xx-9-----9-9--xx-9-----xx--9-----9-9--xx-9-----9-9--9999- x2
 B |----9-h10-1010-xx-9-h10-1010-xx-9-h10-xx--9-h10-1010-xx-9-h10-1010-9999-
 G |----9-h11-1111-xx-9-h11-1111-xx-9-h11-xx--9-h11-1111-xx-9-h11-1111-9999-
 D |----9-----9-9--xx-9-----9-9--xx-9-----xx--9-----9-9--xx-9-----9-9--9999-
 A |------------------------------------------------------------------------
 E |------------------------------------------------------------------------

      
 E  --9--9--9--9--9--9--9--9--9--9--9--9--9-9-9-9-9-9-9-9-9-9-9--|
 B  --10-10-10-10-10-10-10-10-10-10-10-10-9-9-9-9-9-9-9-9-9-9-9--|
 G  --11-11-11-11-11-11-11-11-11-11-11-11-9-9-9-9-9-9-9-9-9-9-9--|
 D  --9--9--9--9--9--9--9--9--9--9--9--9--9-9-9-9-9-9-9-9-9-9-9--|
 A  -------------------------------------------------------------|
 E  -------------------------------------------------------------|


SOLO

Distortion, wWha and Reverb (Simple solo played with FEELING)

 E |-----------------------------------------------------------------  
 B |-----------------------------------------------------------------  
 G |--11^13--13^11~~9----9-9~~-9h10h11-11-11p9-11-11^13^11p9-11-11~~-  
 D |-----------------11----------------------------------------------  
 A |-----------------------------------------------------------------  
 E |-----------------------------------------------------------------


    -------------------------------------------------------------------------|
    -10h12-12^14-12^14-12^14-12^14-12^14^12p10-----10~~----------------------|
    -------------------------------------------9h11----9-9-9--9~~~11~11~11~--|
    ---------------------------------------------------9-9-9-----------------|
    -------------------------------------------------------------------------|
    -------------------------------------------------------------------------|


Part II (KIND OF LIKE A BRIDGE, ONLY ITS NOT)

 E |--12/14-14-14-14-14-14-14-14-14-14-14-14-17-17-17-17-17-17-17-16-16-16-16-16-16-16-
 B |--12/14-14-14-14-14-14-14-14-14-14-14-14-17-17-17-17-17-17-17-16-16-16-16-16-16-16-
 G |-----------------------------------------------------------------------------------
 D |-----------------------------------------------------------------------------------
 A |-----------------------------------------------------------------------------------
 E |-----------------------------------------------------------------------------------

[ Tab from: http://www.guitartabs.cc/tabs/m/mantic/fearghal_schmack_out_tab.html ]
    --14-14-14-14-14-14-14-14-14-14-14-14-12-12-12-12-12-12-12-12-12-12-12-12-| x 2
    --14-14-14-14-14-14-14-14-14-14-14-14-12-12-12-12-12-12-12-12-12-12-12-12-|
    --------------------------------------------------------------------------|
    --------------------------------------------------------------------------|
    --------------------------------------------------------------------------|
    --------------------------------------------------------------------------|


N/B *second time end it like this*

    --14-14-14-14-14-14-14-14-14-14-14-14-12-12-12-12-12-12-12-12-12?--|
    --14-14-14-14-14-14-14-14-14-14-14-14-12-12-12-12-12-12-12-12-12?--|
    --------------------------------------------------------------------|
    --------------------------------------------------------------------|
    --------------------------------------------------------------------|
    --------------------------------------------------------------------|


Verse III

Clean wCompression

 E |----9-----9-9--xx-9-----9-9--xx-9-----xx--9-----9-9--xx-9-----9-9--9999- x2
 B |----9-h10-1010-xx-9-h10-1010-xx-9-h10-xx--9-h10-1010-xx-9-h10-1010-9999-
 G |----9-h11-1111-xx-9-h11-1111-xx-9-h11-xx--9-h11-1111-xx-9-h11-1111-9999-
 D |----9-----9-9--xx-9-----9-9--xx-9-----xx--9-----9-9--xx-9-----9-9--9999-
 A |------------------------------------------------------------------------
 E |------------------------------------------------------------------------

      
 E  --9--9--9--9--9--9--9--9--9--9--9--9--9-9-9-9-9-9-9-9-9-9-9-9----|
 B  --10-10-10-10-10-10-10-10-10-10-10-10-9-9-9-9-9-9-9-9-9-9-9-9----|
 G  --11-11-11-11-11-11-11-11-11-11-11-11-9-9-9-9-9-9-9-9-9-9-9-9----|
 D  --9--9--9--9--9--9--9--9--9--9--9--9--9-9-9-9-9-9-9-9-9-9-9-94/-|
 A  -----------------------------------------------------------------|
 E  -----------------------------------------------------------------|


Solo II (Practically identical to the first..)

Distortion, wWha and Reverb


 E |---------------------------------------------------------------------------------------------------------------- 
 B |----------------------------------------------------------------------------12-12^14-12^14-12^14--12^14-12^14---
 G |--11^13^11p9-11-9~~----------x-9---9--9---9h11~11~11~11~11~11~11^13^11p9-11------------------------------------- 
 D |---------------------11p9-11-x--11-11-11------------------------------------------------------------------------
 A |----------------------------------------------------------------------------------------------------------------
 E |----------------------------------------------------------------------------------------------------------------


    ----------------------------------------------------------------------------------------------------
    --12^14^12p10-12-10~~-------------------------------------------------------------------------------
    ---------------------11-9-11-11~~~¬ ¬ ¬-11-11-9-xx-9-xx-9-xx-9-xx-9-xxx-9-xx-9-xx-9-xx-9-xx-9h11-11-
    ----------------------------------------------------------------------------------------------------
    ----------------------------------------------------------------------------------------------------
    ----------------------------------------------------------------------------------------------------

    ---------------------------------------------------------------------------------------------------------------------
    ---------------------------------------------------------11-11-11-11-11-11-11-11-11-11-11-11-9-9-9-9-9-9-9-9-9-9-9-9-
    --9-xx-9-xx-9-xx-9-xx-9-xxx-9-xx-9-xx-9-xx-9-xx-9h11-11--11-11-11-11-11-11-11-11-11-11-11-11-9-9-9-9-9-9-9-9-9-9-9-9-
    ---------------------------------------------------------------------------------------------------------------------
    ---------------------------------------------------------------------------------------------------------------------
    ---------------------------------------------------------------------------------------------------------------------


    ------------------------------------------------------------|
    -11-11-11-11-11-11-11-11-11-11-11-11-9-9-9-9-9-9-9-9-9-x----|
    -11-11-11-11-11-11-11-11-11-11-11-11-9-9-9-9-9-9-9-9-9-x----|
    ---------------------------------------------------------4/-|
    ------------------------------------------------------------|
    ------------------------------------------------------------|

Main Riff (Outro)


wDistortion, slight compression
                                  
 E |-----------------------------------------------999---
 B |------11-11-9-9-99------9-------99------9-9-xx-999---
 G |------11-11-9-9-99------9--8-/9-99-8-/9-9-9-xx-999---
 D |-------------------9-11------------------------------
 A |--9-9------------------------------------------------
 E |-----------------------------------------------------

                                     
 E  --------------------------------------------xx-121212--------------------| x2
 A  ------11-11-9-9-99------9-------99------9-99xx-121212--------------------|
 D  ------11-11-9-9-99------9--8-/9-99-8-/9-9-99xx-9-9-9--11^13^11p9 11~~~9--|
 G  -------------------9-11--------------------------------------------------|
 B  --9-9--------------------------------------------------------------------|
 E  -------------------------------------------------------------------------|

!!Copyright kevin mc aleese and mantic!!


Comments