Mansun - I Can Only Dissapoint You Chords & Tabs

 

I Can Only Dissapoint You Chords & Tabs

Mansun Chords & Tabs

Version: 1 Type: Tab 0 ratings
1 star 2 stars 3 stars 4 stars 5 stars
comments

I Can Only Dissapoint You Tab

name=Chris Blackburn
band=Mansun
I Can Only Disappoint You

main riff (harp/keyboard)

E------------------------------------------------------------|
B-------------------------------------10---------------------|
G---------12-----10------------12----------------------------|
D------10----10-----10-----10------10----------10-----10-----|
A---8--------------------8-----------------12------12----12--|
E------------------------------------------------------------|

E---------12-----10------------12-----13---------------------|
B-------------------10-----10------10------------------------|
G-----10----------------10-----------------------------------|
D--12--------12--------------------------------10-----10-----|
A------------------------------------------12------12----12--|
E------------------------------------------------------------|
[ Tab from: http://www.guitartabs.cc/tabs/m/mansun/i_can_only_dissapoint_you_tab.html ]
With occasional (guitar)
E-------------     -8--8--8\---     ----------------------
B-------------     -10-10-10\--     ----all palm muted----
G-------------     ------------     ----------------------
D------------- and ------------ and ----------------------
A-------------     ------------     ---10-10-8----10-10-8-
E--5-8-5-8-5--     ------------     -8----------8---------




solo 1 (phased, flanged and wah)

D-------------------------10---------------------------12----|
A--------8-10s12--10--12------12-------8-10s12--10--12----12-|
E---8-10--------------------------8-10-----------------------|

G----------------------------------------------------9/-9/\-7---|
D-----------------------10------------------------------------7-|
A------8-10s12--10--12------12-------8-10s12--10--12------------|
E-8-10--------------------------8-10----------------------------|


solo 2 (with flange and wah)
E----------------------17----------------------------|
B-15-15-15-17-17/\-15------15-15-15-17-17/\-15-------|
G-----------------------------------------------14---|

E----------------------17----------------------------|
B-15-15-15-17-17/\-15------17/-\17-15----------------|
G--------------------------------------14--17--------|


Comments