Manson Marilyn - The Nobodies Chords & Tabs

 

The Nobodies Chords & Tabs

Manson Marilyn Chords & Tabs

Version: 1 Type: Tab 3 ratings
1 star 2 stars 3 stars 4 stars 5 stars
comments

The Nobodies Tab

Marilyn  Manson
Nobodies                      by Sarah,    thelove_thehate@hotmail.com
Holywood

Intro
E--------------------------------------------------------------------------------------------------------
B----1----1-----1----1-----1----1-----1----1---------1--------------1--------1----1-----1----1----
G------2-----------2-----------2----------2--------------1---------1-------------2-----------2------
D-------------------------------------------------------------2---2--------2---------------------------
A---0--------0-----------3--------3------------------------------------------0-------------------------
E----------------------------------------------------0------------------------------------3-------------

Verse
 E--------------------------------------------------------------------------------------------------------
B----1----1-----1----1-----1----1-----1----1---------1--------------1--------1----1-----1----1----
G------2-----------2-----------2----------2--------------1---------1-------------2-----------2------
D-------------------------------------------------------------2---2--------2---------------------------
A---0--------0-----------3--------3------------------------------------------0-------------------------
E----------------------------------------------------0------------------------------------3-------------
[ Tab from: http://www.guitartabs.cc/tabs/m/manson_marilyn/the_nobodies_tab.html ]
 
E--------------------------------------------------------------------------------------------------------
B----1----1-----1----1-----1----1-----1----1---------1--------------1--------1----1-----1----1----
G------2-----------2-----------2----------2--------------1---------1-------------2-----------2------
D-------------------------------------------------------------2---2--------2---------------------------
A---0--------0-----------3--------3------------------------------------------0-------------------------
E----------------------------------------------------0------------------------------------3-------------


Chorus
E---------------------------------------------------------------------------------
B---1-1-1-1-1-1-1---1-1-1-1-1-1-1---0-0-0-0-0-0-0---1-1-1-1-1-1-1---
G---2-2-2-2-2-2-2---0-0-0-0-0-0-0---1-1-1-1-1-1-1---2-2-2-2-2-2-2---
D---2-2-2-2-2-2-2---2-2-2-2-2-2-2---2-2-2-2-2-2-2---2-2-2-2-2-2-2---
A---0-0-0-0-0-0-0---3-3-3-3-3-3-3---3-3-3-3-3-3-3---0-0-0-0-0-0-0---
E---0-0-0-0-0-0-0---0-0-0-0-0-0-0----0-0-0-0-0-0-0---0-0-0-0-0-0-0---           
                                                                                                   x2    

 
Okay you play that to the tune you’ll figure out how many times and where and stuff. It works best if you use the same number finger as the fret position. Any corrections or queeries or if you wanna know the lyrics, tlk 2 me. 
Comments