Manson Marilyn - The Beautiful People Chords & Tabs

 

The Beautiful People Chords & Tabs

Manson Marilyn Chords & Tabs

Version: 1 Type: Tab 0 ratings
1 star 2 stars 3 stars 4 stars 5 stars
comments

The Beautiful People Tab

#----------------------------------PLEASE NOTE--------------------------------#
#This file is the author's own work and represents their interpretation of the#
#song. You may only use this file for private study, scholarship, or research.#
#-----------------------------------------------------------------------------#
#-- File created with Instab - http://www.pconline.com/~smcarey/instab.html --#
#-----------------------------------------------------------------------------#

-|----------------------------------------------------------------------------
-|----------------------------------------------------------------------------
-|----------------------------------------------------------------------------
-|-222-22-222-22-222-22-222-22------------------------------------------------
-|-222-22-222-22-222-22-222-22------------------------------------------------
-|-000-00-000-00-000-00-000-00------------------------------------------------
     Verse  (played on Bass) Ive arranged it for guitar you lucky buggers     
[ Tab from: http://www.guitartabs.cc/tabs/m/manson_marilyn/the_beautiful_people_tab.html ]
-|----------------------------------------------------------------------------
-|----------------------------------------------------------------------------
-|----------------------------------------------------------------------------
-|----------------------------------------------------------------------------
-|----------------------------------------------------------------------------
-|-0-4-0-4-0--0-4-0-4-0-1-0---------------------------------------------------
     Pre chorus (weird distortion)                                            

-|----------------------------------------------------------------------------
-|----------------------------------------------------------------------------
-|-7-77-6-66-5-55-------------------------------------------------------------
-|-7-77-6-66-5-55--5-5/10-----------------------------------------------------
-|-5-55-4-44-3-33--5-5/10-----------------------------------------------------
-|-----------------3-3/10-----------------------------------------------------
     Chorus and verse when guitar kicks in                                    

-|----------------------------------------------------------------------------
-|----------------------------------------------------------------------------
-|----------------------------------------------------------------------------
-|-2-6-2-6-2--2-6-2-6-2-3-2---------------------------------------------------
-|-2-6-2-6-2--2-6-2-6-2-3-2---------------------------------------------------
-|-0-4-0-4-0--0-4-0-4-0-1-0---------------------------------------------------
     And that's it!! Drop me a line at briancunningham@ntlworld.com           

Comments