Manson Marilyn - The Beautiful People Main Riff Correct Chords & Tabs

 

The Beautiful People Main Riff Correct Chords & Tabs

Manson Marilyn Chords & Tabs

Version: 1 Type: Tab 0 ratings
1 star 2 stars 3 stars 4 stars 5 stars
comments

The Beautiful People Main Riff Correct Tab

   
INTRO

Tuning (weird, I know): Tuning: B F# B E G# C#

I've tried all of the Drop D versions, and they seem to be missing some part of the sound... so I tried this tuning out, and 

it seems to fit better. This is my first tab, please don't abuse me to much! Oh ya, while you're in this tuning try out 

Slipknot's "Duality" because its in the same tuning as this.
[ Tab from: http://www.guitartabs.cc/tabs/m/manson_marilyn/the_beautiful_people_main_riff_correct_tab.html ]
c#)--------------------------------------------------------------------------|
g#)--------------------------------------------------------------------------|
e )--------------------------------------------------------------------------|
B )--x--x--x--x--x---------------0----3---0-----0----3---0-------0---3---0---|
F#)--x--x--x--x--x----repeat-----0----3---0-----0----3---0-------0---3---0---|
B )--x--x--x--x--x---------------0----3---0-----0----3---0-------0---3---0---|


----------------------------------------------------------------------------|
----------------------------------------------------------------------------|
----------------------------------------------------------------------------|
-0--3---0------0--6--0--6--0-----------0--6--0--6--0------------------------|
-0--3---0------0--6--0--6--0-----------0--6--0--6--0------repeat 4 times----|
-0--3---0------0--6--0--6--0-----------0--6--0--6--0------------------------|

 -r0tc0d 
 -vietn0w@gmail.com for comments or suggestions. 
Comments