Manson Marilyn - The Beautiful People Complete Chords & Tabs

 

The Beautiful People Complete Chords & Tabs

Manson Marilyn Chords & Tabs

Version: 1 Type: Tab 0 ratings
1 star 2 stars 3 stars 4 stars 5 stars
comments

The Beautiful People Complete Tab

Artist: Marilyn Manson 
Song: The beautiful people 
Album: Antichrist superstar 
Tuning: DADGBE



Intro 1
|------------------------------------|
|------------------------------------|
|------------------------------------|
|--x-x-x-x-x-----------------------|          Follow Drum beat Up and Down Strum
|--x-x-x-x-x-----------------------| 
|--x-x-x-x-x-----------------------|

Intro 2
|-----------------------------------|
|-----------------------------------|
|-----------------------------------|
|--0-3-0---------------------------|
|--0-3-0---------------------------|
|--0-3-0---------------------------|  

Intro 3
|---------------------------------------|
|---------------------------------------|
|---------------------------------------|
|--0-6-0--0-6-0-6-0--0-3-0---------|
|--0-6-0--0-6-0-6-0--0-3-0---------|
|--0-6-0--0-6-0-6-0--0-3-0---------| 
[ Tab from: http://www.guitartabs.cc/tabs/m/manson_marilyn/the_beautiful_people_complete_tab.html ]
 
Verse 1
|--------------------------------------|
|--------------------------------------|
|--------------------------------------|                 When he sings 'the beautiful people' for 
|--x-x-x-x-x-x----------------------|              the first time 
|--x-x-x-x-x-x----------------------| 
|--x-x-x-x-x-x----------------------|

Verse 2
|---------------------------- ----|
|---------------------------------|
|--7-6-5-4----------------------|
|---------------------------------|
|--5-4-3-2----------------------|
|--------------------------- -----| 

Chorus
|----------------------------------|
|----------------------------------|
|----------------------------------|
|-x-x-x-3-0---------------------|
|-x-x-x-3-0---------------------|
|-x-x-x-3-0---------------------| 

Ending  
|----------------------------------------------------------------------------
|----------------------------------------------------------------------------|
|----------------------------------------------------------------------------|
|0-6-0--0-6-0-6-0--0-3-0--0-6-0-6-0--0-6-0-6-0-6-5-3-0----------|
|0-6-0--0-6-0-6-0--0-3-0--0-6-0-6-0--0-6-0-6-0-6-5-3-0----------|
|0-6-0--0-6-0-6-0--0-3-0--0-6-0-6-0--0-6-0-6-0-6-5-3-0----------|  

Order: 

Intro1: X8 
Intro2: X4 
Intro3: X4 
Verse1: X8 
Verse2: X2 
Intro2: X4 
Chorus: X7 
Intro3: X4 
Verse2: X2 
Intro3: X4 
Chorus: X4 
Intro3: X4 
Ending: Till finish


Please email me with comments or requests at burning_effigy666@hotmail.com
Comments