Manson Marilyn - Sweet Dreams Chords & Tabs

 

Sweet Dreams Chords & Tabs

Manson Marilyn Chords & Tabs

Version: 6 Type: Tab 0 ratings
1 star 2 stars 3 stars 4 stars 5 stars
comments

Sweet Dreams Tab

Marilyn Mansion "Sweet Dreams"
from the album: Smells Like Children


   E|--------------------|--------------------------|
   B|--------------------|--------------------------|
   G|--------------------|--------------------------|
   D|--------------------|--------------------------|
   A|-----9---10---9-----|-----5---------4--(4)/(9)-|
   E|-7-7---7----7---7-0-|-3-3---3-0-2-2---2-2-/-7--|

[ Tab from: http://www.guitartabs.cc/tabs/m/manson_marilyn/sweet_dreams_tab_ver_6.html ]
    (The 2,(4),and the 7,(9). You pluck the 2 and slide
    not plucking the 4,but sliding at the same time 'till
    you get to the 7 and doing the same thing but do not slide.)



   E|------------------------------------------|
   B|------------------------------------------|
   G|------------------------------------------|
   D|------------------------------------------|
   A|-9-9-9-9-9-9-9-9-x-5-5-5-5-x-4-4-4-(4)/---|
   E|-7-7-7-7-7-7-7-7-0-3-3-3-3-0-2-2-2-(2)/---|


   (The (2),(4). Do not pluck them just slide.)
    
Comments