Manson Marilyn - Sweet Dreams Chords & Tabs

 

Sweet Dreams Chords & Tabs

Manson Marilyn Chords & Tabs

Version: 5 Type: Tab 0 ratings
1 star 2 stars 3 stars 4 stars 5 stars
comments

Sweet Dreams Tab

Marlilyn Manson
Sweet Drams (Eurythmics Cover)
from the movingpicture "house on haunted hill"
tabbed by Bjoern Elsner(Bjoern.Elsner@gmx.de)

Note:I've seen the movie 1 a year ago,i liked the
     song and decided to tab it.the intro is reapeated
     during the song!	

Legend:
(8)=not original, but sounds better
 \ =slide down
 h =hammer on

The song :
1.)Unidentified Sound for 5seconds

2.)INTRO(arranged for electric distored guitar)

|-----------------------------------------------|
|-----------------------------------------------|
|-----------------------------------------------|
|-----------7----8--(8)--7-\-----5h6--\-----3h4-| 2 Times
|------5-5----5------------\-3-3------\-1-1-----|
|-----------------------------------------------|

3.)Verse 1 (reapeat the intro all the time)

	Sweet Dreams are made of these
	Who have a mind to disagree
	travel the world and the seven seas
	everybody is looking for something

4.)Chorus (intro reapeated)
	
	Some of them want to use you
	Some of them wanna get used by you
	Some of them want to abuse you
	Some of them want to be abused
[ Tab from: http://www.guitartabs.cc/tabs/m/manson_marilyn/sweet_dreams_tab_ver_5.html ]
5.)Guitar Part&Intro 
Guitar-part(with wahwah!!)
|-------5-----6-5----------3-3---------1--1-----|
|-----------------------------------------------|
|-7--7-----7-------\ 5--5-------\-3--3----------| 2 times
|-----------------------------------------------|
|-----------------------------------------------|
|-----------------------------------------------|

6.)Verse 2 (Intro repeated)
	
	Sweet Dreams are made of these
	Who have a mind to disagree
	travel the world and the seven seas
	everybody is looking for something

7.)Chorus(Intro reapeated)
	
	Some of them want to use you
	Some of them wanna get used by you
	Some of them want to abuse you
	Some of them want to be abused

8.)BRIDGE 
	I wanna use you
	I wanna use you
	I wanna know by your side
	Movin' on
	Movin' on
        Movin' on
	Movin' on (whispered:"watch out") 
	Movin' on
        Don't movin' on------

9.)SOLO (Intro for background)

10.)VERSE 3 (only Drums and keyboard)
	
	Sweet Dreams are made of these
	Who have a mind to disagree
	travel the world and the seven seas
	everybody is looking for something

11.)CHORUS (intro reapeated)
	
	Some of them want to use you
	Some of them wanna get used by you
	Some of them want to abuse you
	Some of them want to be abused--

12.)BRIDGE 2
	I wanna use you
	I wanna use you
	I wanna know by your side
	I wanna use you
	I wanna use you
	I wanna know by your side

14.)End (guitar effect+unidentified sound)
Comments