Manson Marilyn - Rock Is Dead Chords & Tabs

 

Rock Is Dead Chords & Tabs

Manson Marilyn Chords & Tabs

Version: 4 Type: Tab 0 ratings
1 star 2 stars 3 stars 4 stars 5 stars
comments

Rock Is Dead Tab

   
Marilyn Manson
Rock is Dead

Tabbed by:6disturbedstrings

Tuning Low to High= D,A,D,G,B,E


E---------------------------------------------    
B---------------------------------------------    
G------------------------------2-------------     
D--2-4-4--2-4-4--2-4-4--2-4-4--2-------------      
A--2-4-4--2-4-4--2-4-4--2-4-4--0-------------       
D--0-2-2--0-2-2--0-2-2--0-2-2----------------
Repeat top 4 times
[ Tab from: http://www.guitartabs.cc/tabs/m/manson_marilyn/rock_is_dead_tab_ver_4.html ]
E-------------------------------------------------------------------------------
B-------------------------------------------------------------------------------
G--2-5-7--2-5-7---6-4-6-4---6-4-6-4---------------------------------------------
D--2-5-7--2-5-7---4-2-4-2---4-2-4-2---9-7-9-7---9-7-9-7---7-6-7-6---7-6-7-6-----
A--0-3-5--0-3-5-----------------------7-5-7-5---7-5-7-5---5-4-5-4---5-4-5-4-----
D-------------------------------------------------------------------------------

E-------------------------------
B-------------------------------
G-------------------------------
D--6-6-6-6-6-6---9-9-9-9---
A--4-4-4-4-4-4---7-7-7-7---
D-------------------------------

Fairly easy after u get the hang of it
Might not be exact Tabbing but it sounds close to it
if urs sounds better or if u think there should be something else in there e-mail me at
dirtyrockstar13@hotmail.com
Comments