Manson Marilyn - Rock Is Dead Chords & Tabs

 

Rock Is Dead Chords & Tabs

Manson Marilyn Chords & Tabs

Version: 1 Type: Tab 1 rating
1 star 2 stars 3 stars 4 stars 5 stars
comments

Rock Is Dead Tab

   
SONG: Rock Is Dead
	     BAND: Marilyn Manson
	    ALBUM: Mechanical Animals
     SUBMITTED BY: applechunk84@adelphia.net
	   

	TUNING: standard tuning (E,A,D,G,B,E)

 
     INTRO/VERSE:

    E|---------------------------------|
    B|---------------------------------|
    G|---------------------------------|
    D|--4-4-x-x-4-4-x-x-4-4-x-x-4-4-7--|
    A|--4-4-x-x-4-4-x-x-4-4-x-x-4-4-7--|
    E|--2-2-x-x-2-2-x-x-2-2-x-x-2-2-5--|

     PRE-CHORUS:

    E|--------------------------------|
    B|--------------------------------|
    G|--------------------------------|
    D|--7----10--12------7----10--12--|
    A|--7----10--12------7----10--12--|
    E|--5-----8--10------5-----8--10--|

     CHORUS:
[ Tab from: http://www.guitartabs.cc/tabs/m/manson_marilyn/rock_is_dead_tab.html ]
    E|-----------------------------------------------------------------------------------|
    B|-----------------------------------------------------------------------------------|
    G|--11--9-11-9--11--9-11-9--9--7-9-7--9--7-9-7--7--6-7-6--7--6-7-6--6-6-6-6/9-9-9-9--|
    D|--11--9-11-9--11--9-11-9--9--7-9-7--9--7-9-7--7--6-7-6--7--6-7-6--6-6-6-6/9-9-9-9--|
    A|---9--7--9-7---9--7--9-7--7--5-7-5--7--5-7-5--5--4-5-4--5--4-5-4--4-4-4-4/7-7-7-7--|
    E|-----------------------------------------------------------------------------------|

     ACOUSTIC PART: (with keyboard)

    E|---------------|
    B|---------------|
    G|--11----14--9--|
    D|--11----14--9--|
    A|---9----12--7--|
    E|---------------|

     INTERLUDE: (at 2:32)

    E|---------------|
    B|---------------|
    G|---------------|
    D|--10---9--7----|
    A|------------9--|
    E|---------------|

Comments