Manson Marilyn - Rock Is Dead Chords & Tabs

 

Rock Is Dead Chords & Tabs

Manson Marilyn Chords & Tabs

Version: 1 Type: Bass Tab 1 rating
1 star 2 stars 3 stars 4 stars 5 stars
comments

Rock Is Dead Bass Tab

   
Artist: Marilyn Manson
Song: Rock Is Dead
Tabbed by Flo

Intro/Verse

G------------------------------
D------------------------------
A-------------------------9-7-4
E:2-2-2-2-2-2-2-5-2-2-2-2------


Bridge

G-------------------------------
D-------------------------------
A----3-5---3-5------------------
E: 5-----5----------------------  

[ Tab from: http://www.guitartabs.cc/tabs/m/manson_marilyn/rock_is_dead_btab.html ]
Chorus Rock Is Deader Than Dead part


G
D
A ( 9-7-9-7) ( 7-5-7-5) ( 5-4-5-4)  4-4-4-4
E:    2x          2x         2x


Bridge 2

G-----------------------------
D-----------------------------
A: 12-11-9-11-----------------
E-----------------------------




This is my first tab but I think that´s right 


Have Fun

Comments