Manson Marilyn - Nobodies Acoustic Chords & Tabs

 

Nobodies Acoustic Chords & Tabs

Manson Marilyn Chords & Tabs

Version: 1 Type: Tab 0 ratings
1 star 2 stars 3 stars 4 stars 5 stars
comments

Nobodies Acoustic Tab

#----------------------------------PLEASE NOTE---------------------------------#
#This file is the author's own work and represents their interpretation of the #
#song. You may only use this file for private study, scholarship, or research. #
#------------------------------------------------------------------------------#

Marilyn Manson - The Nobodies (acoustic version)

Tabbed by thubbard00
Contact me @ heelflip_the_biscuit_tin@hotmail.com

Intro + Verse
e|---------------------------------------------------------|
B|----1-1----1-1----1-1----1-1----1-1----1-1----1-1----1-1-|
G|-----2------2------2------2------2------2------2------2--| 
D|---------------------------------------------------------|
A|--0------0------3------3--------------------0-------0----|
E|------------------------------0------0-------------------|

Today i'm dirty
I want to be pretty
Tomorrow i know, i'm just dirt

REPEAT 

Bridge 1
e|--0--|
B|--0--|
G|--0--| 
D|--5--|
A|--5--|
E|--3--|

[ Tab from: http://www.guitartabs.cc/tabs/m/manson_marilyn/nobodies_acoustic_tab.html ]
Chorus
e|--0----0-----0----0--0----|
B|--0----0-----0----0--0----|
G|--0----0-----0----0--0----| 
D|--7----10----2----7--5----|
A|--7----10----2----7--5----|
E|--5----8-----0----5--3----|

We are the nobodies
Wanna be somebodies
We're dead, we know just who we are
We are the nobodies
Wanna be somebodies
We're dead, we know just who we are

Verse

Yesterday i was dirty
Wanted to be pretty
I know now that i'm forever dirt
Yesterday i was dirty
Wanted to be pretty
I know now that i'm forever dirt

Chorus

Bridge 2
e|--0----0-----|
B|--0----0-----|
G|--0----0-----| 
D|--7----10----|
A|--7----10----|
E|--5----8-----|

Some children died the other day
We feed machines and then we pray
Look up and down mortified
You should have seen the ratings that day 
Some children died the other day
We feed machines and then we pray
Look up and down mortified
You should have seen the ratings that day

Verse (played softely)

Nanananana nanananana nanananana nananana

We are the nobodies 
wanna be somebodies 
we're dead, we know just who we are
We are the nobodies
wanna be somebodies

Bridge 1 }	Play
Chorus   }	aggresively

End on e|--0--|
       B|--0--|
       G|--2--| 
       D|--2--|
       A|--0--|
       E|--0--|
Comments