Manson Marilyn - Mobscene Chords & Tabs

 

Mobscene Chords & Tabs

Manson Marilyn Chords & Tabs

Version: 1 Type: Tab 1 rating
1 star 2 stars 3 stars 4 stars 5 stars
comments

Mobscene Tab

   
Manson, Marilyn
mOBSCENE

This song is in dropped D tuning, low to high-D-A-D-G-B-E
You will have to listen to the song to figure out the timing
and where all the riffs go but I assure you this is the correct
way to play this song.

Enjoy

Intro:Play 4 times
          
E:-------------------------------------------------------------------------:
B:-------------------------------------------------------------------------:
G:-------------------------------------------------------------------------:
D:------2--2--2--5--5--2--7-------------2--5--2----0--2--0-------:
A:------2--2--2--5--5--2--7-------------2--5--2----0--2--0-------:
D:------2--2--2--5--5--2--7-------------2--5--2----0--2--0-------:

Verse:(no gtr till the pain part)


E:---13-------12-------13-------12-------13-------12-------13-----:
B:---------------------------------------------------------------------------:
G:---------------------------------------------------------------------------:
D:---------------------------------------------------------------------------:
A:---------------------------------------------------------------------------:
D:---------------------------------------------------------------------------:

Chorus:
[ Tab from: http://www.guitartabs.cc/tabs/m/manson_marilyn/mobscene_tab.html ]
Three Times
E:----------------------------------------------------------------------------:
B:----------------------------------------------------------------------------:
G:----------------------------------------------------------------------------:
D:-----7-7-7-7-7-7-7-7-10-10-10-10-10-10-10-10-------------:
A:-----7-7-7-7-7-7-7-7-10-10-10-10-10-10-10-10-------------:
D:-----7-7-7-7-7-7-7-7-10-10-10-10-10-10-10-10-------------:

Fourth Time
E:----------------------------------------------------------------------------:
B:----------------------------------------------------------------------------:
G:----------------------------------------------------------------------------:
D:-----7-7-7-7-7-7-7-7-8-8-8-8-8-8-8-8-8-8-8-8-8-8-8-8-----:
A:-----7-7-7-7-7-7-7-7-8-8-8-8-8-8-8-8-8-8-8-8-8-8-8-8-----:
D:-----7-7-7-7-7-7-7-7-8-8-8-8-8-8-8-8-8-8-8-8-8-8-8-8-----:

Bridge:
E:---------------------------------------------------------------------------:
B:---------------------------------------------------------------------------:
G:---------------------------------------------------------------------------:
D:----0--2--0--------------------------------------------------------------:
A:----0--2--0--------------------------------------------------------------:
D:----0--2--0--------------------------------------------------------------:
Comments