Manson Marilyn - Great Big White World Chords & Tabs

 

Great Big White World Chords & Tabs

Manson Marilyn Chords & Tabs

Version: 1 Type: Tab 0 ratings
1 star 2 stars 3 stars 4 stars 5 stars
comments

Great Big White World Tab

Heres my version you dont like it tough stuff its sounds great to me


Artist:Marilyn Manson
Song: Great Big White World
Tabbed by: Moises Macedo

----------------------
----4-3~------4-3-1---    Do a light vibrato to sound correct
--5-------3-5---------    repeat for the whole "in space the stars"...
----------------------
----------------------
----------------------

Heres Piano arranged for guitar if you wanna play it

------------------
-4---6------------
---5---7-7---7~---        
-----------8------
------------------
------------------
[ Tab from: http://www.guitartabs.cc/tabs/m/manson_marilyn/great_big_white_world_tab.html ]
-------------------------------------
---4-3-1-4-3-1-4---4-3-0-4-3-0-4-----
-5---------------3-------------------   "I'm not Attached..."
-------------------------------------
-------------------------------------
-------------------------------------


-------------------------------------
---4-6-7~-6-4---4-6-7~---8-----------
-5------------5--------8-------------    "Cuz its a great big white world..."
-------------------------------------
-------------------------------------
-------------------------------------

-------------------------------------------
-------------------------------------------
-------------------------------------------    "All my stiches itch..."
-3-----6-----10-----8-----6-----5-----4---- 
-3-x8--6-x8--10-x8--8-x8--6-x8--5-x8--4-x1-
-1-----4------8-----6-----4-----3-----2----


Thats it just keep repeating it through the song. Any comments or corrections
E mail me at SCArredANGel03@cs.com










Comments