Manson Marilyn - Fight Song Chords & Tabs

 

Fight Song Chords & Tabs

Manson Marilyn Chords & Tabs

Version: 3 Type: Tab 2 ratings
1 star 2 stars 3 stars 4 stars 5 stars
comments

Fight Song Tab

   
submitted by Bryan Gaulke
k i figured out the rest of the song and made some corrections
(riff a)
e---5-----------------|
b---------------------|
g---------------------|
d---------------------|
a---------------------|
e-2---00-22-0-xx-55-5-|

chorus
e-------------|
b-------------|
g-------------|
d-44-22-44-77-|x4 i think u can figure that out (i hope)
a-44-22-44-77-|
e-22-00-22-55-|
[ Tab from: http://www.guitartabs.cc/tabs/m/manson_marilyn/fight_song_tab_ver_3.html ]
(riff a)
pre chorus
e---------------------------------------------------------|
b---------------------------------------------------------|
g---------------------------------------------------------|
d-777777-444444-777777-444444-777777-444444-777777-222222-|
a-777777-444444-777777-444444-777777-444444-777777-222222-|
e-555555-222222-555555-222222-999999-222222-555555-000000-|

interlude (can also be keyboard)
e-----------------------------|
b-----------------------------|
g--------------------------3^-|
d-7^--545^-9^-56-9^--7-3-4----|
a-----------------------------|
e-----------------------------|

ending
e------------------------|
b------------------------|
g------------------------|
d-44-22-44-22-44-22-44-7-|x3
a-44-22-44-22-44-22-44-7-|
e-22-00-22-00-22-00-22-5-|
Comments