Manson Marilyn - Dried Up Tied Up And Dead To The World Chords & Tabs

 

Dried Up Tied Up And Dead To The World Chords & Tabs

Manson Marilyn Chords & Tabs

Version: 1 Type: Tab 0 ratings
1 star 2 stars 3 stars 4 stars 5 stars
comments

Dried Up Tied Up And Dead To The World Tab


Dried Up,Tied Up and Dead To The World (live)
band: marilyn manson
song:3
cd:   remix and repent
tabbed by: pogo_76

tunning:  drop d tunning


im not shure about the first
 three chords:
riff1        (0:30) 
E|----------------------------|
B|----------------12~12~------|
G|---9--10-9------12~12~------|
D|---x--x--x------------------|     x4
A|---7--8--7------------------|
D|----------------------------|


riff2     (0:42)
E|------------------------------------------|
B|--5-6-5-----5-6-5-----5-6-5--5-6-7-8------|
G|------------------------------------------|
D|------------------------------------------|        X1
A|------------------------------------------|
D|------------------------------------------|


riff3    (0:47)  1,3,4,6,7      2,5,8
E|-------------|-------------|--------|
B|-------------|-------------|--------|
G|-------------|-------------|--------|
D|-------------|-------------|--------|      X1
A|--22-0-2-----|-55---777----|--0-----|
D|--22-0-2-----|-55---777----|--0-----|   
 PLAY EVERYTIME


riff4(chorus)    (1:09)
E|-------------------------------------------------|
B|-------------------------------------------------|
G|--999999-----777777-----44444-----5555-2-22------|
D|--999999-----777777-----44444-----5555-2-22------|    X2
A|--777777-----555555-----22222-----3333-0-00------|
D|-------------------------------------------------|



riff2  x2         (1:30)

riff1  x4         (1:52)


[ Tab from: http://www.guitartabs.cc/tabs/m/manson_marilyn/dried_up_tied_up_and_dead_to_the_world_tab.html ]
riff5(chorus 2)    (2:03)
E|-------------------------------------------------|
B|----------5~---------5~--------5~----------------|
G|--999999-----777777-----44444-----5555-2-22------|
D|--999999-----777777-----44444-----5555-2-22------|    X2
A|--777777-----555555-----22222-----3333-0-00------|
D|-------------------------------------------------|



riff6             (2:26)
                1,3,4       2  
E|----------|-----------|-------|
B|----------|-----------|-------|
G|----------|-----------|-------|     X1  CLEAN
D|----------|-----------|-------|     X1  DISTORTION
A|--22-0-2--|--55--777--|---0---|
D|--22-0-2--|--55--777--|---0---|


riff5  x2        (2:48)



riff7             (3:08)
E|----------------------------------------------------------|
B|----------------------------------------------------------|
G|--99-7-9--/10~---99-7-9--/10~---99-7-9--/10~--------------|
D|--99-7-9--/9~~---99-7-9--/9~~---99-7-9--/9~~----9~8~7~5~--|    x2
A|--77-5-7---------77-5-7---------77-5-7--------------------|
D|----------------------------------------------------------|



riff8              (3:30)
E|---------------------|
B|----------------4^5--|
G|---------------------|
D|--22-22--2222--------|
A|--22-22--2222--------|
D|--22-22--2222--------|
   ............PM  


~~      TREMOLO
4^5     BEND A FULL STEP
/ /     SLIDE
...     PALM MUTING
XX      MUTE STRING

this is tabbed from remix and repent,mainly because you can hear the guitar alot better, the only differance between the cd version and "remix a repent" version  is the time the riffs start, so if you play along with the actual cd just don't take any notice of the time above the tab.
                                                      pogo_76
Comments