Manson Marilyn - Dope Hat Chords & Tabs

 

Dope Hat Chords & Tabs

Manson Marilyn Chords & Tabs

Version: 1 Type: Tab 0 ratings
1 star 2 stars 3 stars 4 stars 5 stars
comments

Dope Hat Tab

Artist: Marilyn Manson	
Title: Dope Hat	
Album: Portrait of an American Family
Tabbed By: KoLeEnA  
Email:colina99@home.com
Tunning: EADGBE (STANDARD)
[ Tab from: http://www.guitartabs.cc/tabs/m/manson_marilyn/dope_hat_tab.html ]
Riff 1
E:-------------------------------------------------------
B:-------------------------------------------------------
G:-------------------------------------------------------
D:-------------------------------------------------------
A:-444444-777777-444444-101010999------------------------
E:-222222-555555-222222-8-8-8-777------------------------
Riff 2
E:-------------------------------------------------------
B:-------------------------------------------------------
G:-------------------------------------------------------
D:-----6-6-5-5-4-4---------------------------------------
A:-4-4-4-4-3-3-2-2---------------------------------------
E:-2-2---------------------------------------------------
Riff 3
E:-------------------------------------------------------
B:-------------------------------------------------------
G:-------------------------------------------------------
D:-------------------------------------------------------
A:-4------------------4----------------------------------
E:-2------------------2----------------------------------
Riff 4
E:-------------------------------------------------------
B:-------------------------------------------------------
G:-------------------------------------------------------
D:---------5-5-5-5---------5-5-5-5-----------------------
A:-2-2-2-2-3-3-3-3-2-2-2-2-3-3-3-3-----------------------
E:-0-0-0-0---------0-0-0-0-------------------------------
Riff 5
E:-------------------------------------------------------
B:-------------------------------------------------------
G:-------------------------------------------------------
D:---------7-7-7-7---------7-7-7-7-----------------------
A:-4-4-4-4-5-5-5-5-4-4-4-4-5-5-5-5-----------------------
E:-2-2-2-2---------2-2-2-2-------------------------------
Riff 6
E:-------------------------------------------------------
B:-------------------------------------------------------
G:-------------------------------------------------------
D:-------------------------------------------------------
A:-9-9-9-8-8-8-7-7-7-6-6-6-5-5-5-4-4-4-3-3-3-2-2-2-------
E:-------------------------------------------------------

ORDER:
Riff 1 x2
Riff 2 xlots
Riff 3 x1
Riff 1 x2
Riff 4 x1
Riff 5 x1
Riff 6 x1
Rest 4 4/4 bars
Riff 2 xlots
Riff 1 x2
Riff 4 x1
Riff 5 x1
Riff 4 x1
Riff 5 x1
Riff 6 x1
End on F#5
Comments