Manson Marilyn - Coma White Chords & Tabs

 

Coma White Chords & Tabs

Manson Marilyn Chords & Tabs

Version: 2 Type: Tab 0 ratings
1 star 2 stars 3 stars 4 stars 5 stars
comments

Coma White Tab

   
submitted by Bryan Gaulke 
artist: Marilyn Manson
song:come white

im like 95% positive about the intro
e------------------------------------------------------------|
B--0--0--0--0--1-1-1---0--0--0--0--1-1-1---0--0--0--0--1-1-1-|
G-2--2--2--2----------2--2--2--2----------2--2--2--2---------|
D------------------------------------------------------------|
A------------------------------------------------------------|
E------------------------------------------------------------|

e-------------------| 
b-------------------|
g--7-7-7-7-5-5-5-4--|repeat number of times
d-------------------|
a-------------------|
e-------------------|
[ Tab from: http://www.guitartabs.cc/tabs/m/manson_marilyn/coma_white_tab_ver_2.html ]
chorus
e----------------------------------------------------------------|
b----------------------------------------------------------------|
g----------------------------------------------------------------|
d-5-5-5-5-5-5-5--7-7-7-7-7-7-7--x-x-x--4-4-4-4-4-4--2-2-2-2-2-2--|
a-5-5-5-5-5-5-5--7-7-7-7-7-7-7--x-x-x--4-4-4-4-4-4--2-2-2-2-2-2--|
e-3-3-3-3-3-3-3--5-5-5-5-5-5-5--x-x-x--2-2-2-2-2-2--0-0-0-0-0-0--|

interlude after 2nd chorus do this twice clean the twice with distortion
e------------------------------|
b------------------------------|
g---------5-7------------------|
d-7-7-7-7-5-7-xx-4--4-4-4-5-5--|x2
a-7-7-7-7-3-5-xx-4--4-4-4-5-5--|
e-5-5-5-5-----xx-2--2-2-2-3-3--|

after keyboard interlude thingy
e------------------------------|
b------------------------------|
g----------------------5-5-5-5-|
d-444444-555555-777777-5-5-5-5-|into chorus then end of song
a-444444-555555-777777-3-3-3-3-|
e-222222-333333-555555---------|

Comments