Manson Marilyn - Beautiful People Chords & Tabs

 

Beautiful People Chords & Tabs

Manson Marilyn Chords & Tabs

Version: 1 Type: Chords 1 rating
1 star 2 stars 3 stars 4 stars 5 stars
comments

Beautiful People Chords

   
The Beautiful People

Transcribed by "LPband1@aol.com"
Low to high: D, A, D, G, B, E.

()-palm mutted


INTRO

e)--------------------------------------------------------------------------|
b)--------------------------------------------------------------------------|
g)--------------------------------------------------------------------------|
d)-(3)-(3)-(3)-(3)-(3)------------0----3---0-----0----3---0-----0---3---0---|
a)-(3)-(3)-(3)-(3)-(3)---repeat---0----3---0-----0----3---0-----0---3---0---|
D)-(3)-(3)-(3)-(3)-(3)------------0----3---0-----0----3---0-----0---3---0---|


----------------------------------------------------------------------------|
----------------------------------------------------------------------------|
----------------------------------------------------------------------------|
-0--3---0------0--6--0--6--0-----------0--6--0--6--0------------------------|
-0--3---0------0--6--0--6--0-----------0--6--0--6--0------repeat 4 times----|
-0--3---0------0--6--0--6--0-----------0--6--0--6--0------------------------|



Verse (bass only) Second part of verse guitar in

---------------------------------------------------------------------------|
---------------------------------------------------------------------------|
---------------------------------------------------------------------------|
--(3)-(3)-(3)-(3)-(3)-(3)-(3)-(3)-(3)-(3)----------------------------------|
--(3)-(3)-(3)-(3)-(3)-(3)-(3)-(3)-(3)-(3)-----------repeat-----------------|
--(3)-(3)-(3)-(3)-(3)-(3)-(3)-(3)-(3)-(3)----------------------------------|


Bridge
[ Tab from: http://www.guitartabs.cc/tabs/m/manson_marilyn/beautiful_people_crd.html ]
----------------------------------------------------------------------------|
----------------------------------------------------------------------------|
--7--7--7--7------6--6--6------5--5--5-----4--4--4-----repeat-2-times-------|
--7--7--7--7------6--6--6------5--5--5-----4--4--4--------------------------|
--5--5--5--5------4--4--4------3--3--3-----2--2--2--------------------------|
----------------------------------------------------------------------------|



Chorus

-----------------------------------------------------------------------------|
-----------------------------------------------------------------------------|
-----------------------------------------------------------------------------|
--0--6--0--6--0-----------0--6--0--6--0---------0--3--0----------------------|
--0--6--0--6--0-----------0--6--0--6--0---------0--3--0-----repeat4-times----|
--0--6--0--6--0-----------0--6--0--6--0---------0--3--0----------------------|



Riff 1

Then When is ah,ah

-----------------------------------------------------------------------------|
-----------------------------------------------------------------------------|
-----------------------------------------------------------------------------|
-----------0--0--0--3--0-----------------0--0--0--3--0-----------------------|
-Ah,ah-----0--0--0--3--0-------Ah,ah,----0--0--0--3--0-----------------------|
-----------0--0--0--3--0-----------------0--0--0--3--0-----------------------|



Second Verse (repeat 2 times )

--------------------------------------------------------------------------|
--------------------------------------------------------------------------|
--7------hold----------------7----7----7----7---
Comments