Manson Marilyn - Antichrist Superstar Chords & Tabs

 

Antichrist Superstar Chords & Tabs

Manson Marilyn Chords & Tabs

Version: 2 Type: Tab 0 ratings
1 star 2 stars 3 stars 4 stars 5 stars
comments

Antichrist Superstar Tab


antichrist_superstar.tab

      
      
#----------------------------------PLEASE NOTE---------------------------------#
#This file is the author's own work and represents their interpretation of the #
#song. You may only use this file for private study, scholarship, or research. #
#------------------------------------------------------------------------------#


Date: Sat 21,June 2003
From: Sydney,Australia 
Subject: TAB: Antichrist Superstar by Marilyn Manson

Song: Antichrist Superstar 
Album: Antichrist Superstar 
Artist: Marilyn Manson
Tabbed by: UnisonBenber

This is a modification of a tab by Abgail Williams which he submitted to GTU Dec 3 1996. Not a very accurate one in my opinion because the tuning in the recording is dropped B, not dropped D (think rusty cage by Soundgarden). My tabs of the main riffs appear below (remember, dropped B tuning, that's done by fretting the low E string at the 10th fret and de-tuning it until it sounds the sane as the open A string).


Intro/middle/outro
----------------------------------------------------------
----------------------------------------------------------
----------------------------------------------------------
----------------------------------------------------------
-2--2-------2--2-------2--2-------------------------------
-0--0-------0--0-------0--0-------------------------------
					repeat a bunch of times


[ Tab from: http://www.guitartabs.cc/tabs/m/manson_marilyn/antichrist_superstar_tab_ver_2.html ]
2nd intro/prechorus
----------------------------------------------------------
----------------------------------------------------------
----------------------------------------------------------
----------------------------------------------------------
-2--2--5--2----12b-------2--2--5--2----12b----------------
-0--0--3--0----10b-------0--0--3--0----10b----------------
		 1/2                      1/2

----------------------------------------------------------
----------------------------------------------------------
----------------------------------------------------------
----------------------------------------------------------
-2--2--5--2----12b------2--2--5--2--8--7--5---------------
-0--0--3--0----10b------0--0--3--0--6--5--3---------------
                 1/2

Verse
----------------------------------------------------------
----------------------------------------------------------
----------------------------------------------------------
----------------------------------------------------------
-0--0--3--0----0--0--3--0---------------------------------
-0--0--3--0----0--0--3--0---------------------------------
					repeat a whole lot

Chorus
----------------------------------------------------------
----------------------------------------------------------
----------------------------------------------------------
----------------------------------------------------------
9----9----8----7----2--2--5--2--2--2--5sl7----------------
7----7----6----5----0--0--3--0--0--0--5sl7----------------


Play under solo
----------------------------------------------------------
----------------------------------------------------------
----------------------------------------------------------
----------------------------------------------------------
-2--2--5--2--8--7--5--------------------------------------
-0--0--3--0--6--5--3--------------------------------------





Comments