Manowar - Warriors Of The World United Chords & Tabs

 

Warriors Of The World United Chords & Tabs

Manowar Chords & Tabs

Version: 1 Type: Bass Tab

Warriors Of The World United Bass Tab

 ManOwaR "Warriors of the World United!"

 OK, pay attention. This song is very out of style
 for ManOwar, because .... IT'S PLAYED DROP D!!!

 Listen to the Bass kids. There are no hops, just flat
 out, get out of my way, metal!

 That being said .. have a blast. 
[ Tab from: http://www.guitartabs.cc/tabs/m/manowar/warriors_of_the_world_united_btab.html ]
G|-----------------------------------------------------|
D|-----------------------------------------------------|
A|-----------------------------1-111-111-111-111-111-1-|
D|-0-000-000-000-000-000-000-0-------------------------|

G|-----------------------------------------------------|
D|-----------------------------------------------------|
A|-5-555-555-555-5-3-333-333-333-3-1-111-1-------------|
D|-------------------------------------------333-2-000-|

 Tab'd correct for the most part by me: Nyte

 Curses, Comments, and Drunken Slurs, can be 
 dirrected to:  Nytethorn@aol.com