Manowar - Thor Chords & Tabs

 

Thor Chords & Tabs

Manowar Chords & Tabs

Version: 1 Type: Tab 0 ratings
1 star 2 stars 3 stars 4 stars 5 stars
comments

Thor Tab

   
THOR (Manowar) 

Tabbed by Spyros Soldatos lordovol@mailbox.gr 
Homepage http://www.geocities.com/SunsetStrip/Frontrow/8281/

       Intro......................................................
          E5                         F#5 G5        E5
e:----||----------------|------------------------|---------------|
B:----||*---------------|------------------------|---------------|
G:----||--9------9------|-9------9---11--12------|-9------9------|
D:----||--9------9------|-9------9---11--12------|-9------9------|
A:----||*-7------7------|-7------7---9---10------|-7------7------|
E:-0-0||-----0-0----0-0-|----0-0-------------0-0-|----0-0----0-0-|


  ...............................................................
              F#5 G5        C5                  D5                 
e:------------------------|-------|----------|-------|-----------||
B:------------------------|-------|----------|-------|----------*||
G:-9------9---11--12------|-5-----|-(5)------|--7----|-(7)-------||
D:-9------9---11--12------|-5-----|-(5)------|--7----|-(7)-------||
A:-7------7---9---10--0-0-|-3-----|-(3)--3-3-|--5----|-(5)------*||
E:----0-0-----------------|-------|----------|-------|------0-0--||


  ............................................................
    E5                         F#5 G5         E5 D5 C5 D5 B5
e:||----------------|------------------------||----------------|
B:||*---------------|-----------------------*||----------------|
G:||--9------9------|-9------9---11--12------||-9--7--5--7--4--|
D:||--9------9------|-9------9---11--12------||-9--7--5--7--4--|
A:||*-7------7------|-7------7---9---10-----*||-7--5--3--5--2--|
E:||-----0-0----0-0-|----0-0------------0-0--||----------------|


  ............................ 
   C5 D5 C5 B5 D5    Har       
e:-----------------|-7--------|
B:-----------------|-7--------|
G:-5--7--5--4--7---|-7--------|
D:-5--7--5--4--7---|----------|
A:-3--5--3--2--5---|----------|
E:-----------------|----------|
                               


  Rh.Fig.1..............................
  $ E5                               D5
||-------------------------|-----------|
||*------------------------|-----------|
||--9----------------------|-(9)--9--7-|
||--9----------------------|-(9)--9--7-|
||*-7----------------------|-(7)--7--5-|
||-------------------------|-----------|
    Black clouds on the hor izon

  ..................................................6x  
   C5                                                 
e:------------------------|-------------------------||
B:------------------------|------------------------*||
G:-5----------------------|-7-----------------------||
D:-5----------------------|-7-----------------------||
A:-3--3--3--3--3--3--3--3-|-5--5--5--5--5--5--5--5-*||
E:------------------------|-------------------------||
      Great thunder  and    burning rain              


 Rh.Fig.2.................................................................  
      E5                     D5                                
||--------------------7-----5---------|--------------------|-5------------|||
||*---5----0--5-7-8--------------8--7-|---3----2--3--5--7--|-----8----7--*|||
||------------------------------------|--------------------|--------------|||
||------------------------------------|--------------------|--------------|||
||*-----------------------------------|--------------------|-------------*|||
||------------------------------------|--------------------|--------------|||
    Thor the mig- hty Thor the bra-ve   crush the in-fields  in your way    

  Rh.Fig.3.......................................
         C5 D5                      
e:---------------------|------------------------|
B:---------------------|------------------------|
G:-5-------------------|-7----------------------|
D:-5-------------------|-7----------------------|
A:-3--3--3--3--3--3--3-|-5--5--5--5--5--5--5--5-|
E:---------------------|------------------------|
   Gods monsters and     men                     


  ..............................................................................
    F5                       G5                       E5              D$ al Fine
e:|------------------------|------------------------|---------------|----------|
B:|------------------------|------------------------|---------------|----------|
G:|------------------------|------------------------|---------------|-9--------|
D:|-3----------------------|-5----------------------|-2--2--2--2--2-|-9--------|
A:|-3----------------------|-5----------------------|-2--2--2--2--2-|-7--------|
E:|-1--1--1--1--1--1--1--1-|-3--3--3--3--3--3--3--3-|-0--0--0--0--0-|-0--------|
       we'll    die   to-    gether    in    the      end

[ Tab from: http://www.guitartabs.cc/tabs/m/manowar/thor_tab.html ]
    Rh.Fig.4 w/Solo....................................9x.
     E5 C5          D5            
e:||--------------------------|-------------------------||
B:||*-------------------------|------------------------*||
G:||--------------------------|-------------------------||
D:||--------------------------|-------------------------||
A:||*-7--7--7--7--7--7--7--7--|-3--3--3--3--5--5--5--5-*||
E:||--------------------------|-------------------------||


  ....................
    C5        D5
e:|---------|---------||
B:|---------|---------||
G:|-5--5--5-|-7--7--7-||
D:|-5--5--5-|-7--7--7-||
A:|-3--3--3-|-5--5--5-||
E:|---------|---------||

  Rh.Fig.1............................................................
    E5                                   D5  C5
e:----------------------|------------------|-------------------------|
B:*---------------------|------------------|-------------------------|
G:--9-------------------|--(9)--------9--7-|-5-----------------------|
D:--9-------------------|--(9)--------9--7-|-5-----------------------|
A:*-7-------------------|--(7)--------7--5-|-3--3--3--3--3--3--3--3--|
E:----------------------|------------------|-------------------------|
    Swing your hammer to  crack the sky      Lift your cape so that


  ...........................3x 
    D5                        
e:---------------------------||
B:--------------------------*||
G:--7------------------------||
D:--7------------------------||
A:--5--5--5--5--5--5--5--5--*||
E:---------------------------||
   you might fly                

Rh.Fig.2.................................................................  
      E5                     D5                                
||--------------------7-----5---------|--------------------|-5------------||
||*---5----0--5-7-8--------------8--7-|---3----2--3--5--7--|-----8----7--*||
||------------------------------------|--------------------|--------------||
||------------------------------------|--------------------|--------------||
||*-----------------------------------|--------------------|-------------*||
||------------------------------------|--------------------|--------------||
    Thor the mig- hty Thor the bra-ve   crush the in-fields  in your way 
   

 Rh.Fig.5 w/Rh.Fig.3...........................
   C5                  D5      F5
|--3--------5---7---|--5----|--8-------10-12--|
|-------------------|-------|-----------------|
|-------------------|-------|-----------------|
|-------------------|-------|-----------------|
|-------------------|-------|-----------------|
|-------------------|-------|-----------------|
  Gods monsters and   men        we'll die to-


  ................................................
   G5              E5                             
e:-10------------|----------|---------|-----------|
B:---------------|----------|---------|-----------|
G:---------------|----------|---------|-9---------|
D:---------------|-2--2--2--|-2-2-2-2-|-9---------|
A:---------------|-2--2--2--|-2-2-2-2-|-7---------|
E:---------------|-0--0--0--|-0-0-0-0-|-0-----0-0-|
   gether in the   end

  Outro...........................................................
    E5 D5  C5  B5      E5              D5  C5  B5    
||----------------|---------------|---------------|---------------|
||*---------------|---------------|---------------|---------------|
||--9------9------|-7-7-5-5-4-----|-9------9------|-7-7-5-5-4-----|
||--9------9------|-7-7-5-5-4-----|-9------9------|-7-7-5-5-4-----|
||*-7------7------|-5-5-3-3-2-----|-7------7------|-5-5-3-3-2-0-0-|
||-----0-0----0-0-|-----------0-0-|----0-0----0-0-|---------------|


  ..........................................
    C5 D5                     E5
e:|--------|----------|---------|-----------||-------||
B:|--------|----------|---------|----------*||-------||
G:|-5------|-(5)------|-7-------|-(7)-------||-------||
D:|-5------|-(5)------|-7-------|-(7)-------||-2-----||
A:|-3------|-(3)--3-3-|-5-------|-(5)------*||-2-----||
E:|--------|----------|---------|------0-0--||-0-----||

LYRICS:
INTRO W/RH.FIG.1 (6 times) Black clouds on the horizon great thunder and burning rain His chariot pounding I heard the Heavens scream his name Oh oh oh oh oh... I watched as he shouted to the Giants who died that day He held up his hammer high and called to Odin for a sign Oh oh oh oh oh ... W/RH.FIG.2 (twice) Thor the mighty Thor the brave crush the infields in your way By your hammer let none be saved born to die on the final day W/RH.FIG.3 Gods monsters and men we'll die together in the end W/RH.FIG.1 (6 times) God of thunder God of rain earthshaker who feels no pain The powerhead of the universe no send your neverending curse Oh oh oh oh oh... I watched as he shouted to the Giants who died that day He held up his hammer high and called to Odin for a sign Oh oh oh oh oh ... W/RH.FIG.2 (twice) Thor the mighty Thor the brave crush the infields in your way By your hammer let none be saved born to die on the final day W/RH.FIG.3 Gods monsters and men we'll die together in the end W/RH.FIG.4 SOLO W/RH.FIG.1 (3 times) Swing your hammer to crack the sky lift your cape so that you might fly Back to Odin and the Gods on high and leave our mortal world Oh oh oh oh oh ... W/RH.FIG.2 (twice) Thor the mighty Thor the brave crush the infields in your way By your hammer let none be saved born to die on the final day W/RH.FIG.3 Gods monsters and men we'll die together in the end OUTRO
Comments