Manowar - Courage Chords & Tabs

 

Courage Chords & Tabs

Manowar Chords & Tabs

Version: 2 Type: Bass Tab 0 ratings
1 star 2 stars 3 stars 4 stars 5 stars
comments

Courage Bass Tab

 ManOwaR - "Courage"
 Written & Played by:
 Joey DeMaio - Top 10 Bad-A Bass Players


  Piano Intro...

  And the wind ...
G---------7----------------------------4--------------------
D-------------------------7---------------------------------
A--5-5-5----5-5h7----------------2-2-2---2-2h4--------------
E-------------------5-5-5---5-5-----------------2-2-2-2-2-2-
[ Tab from: http://www.guitartabs.cc/tabs/m/manowar/courage_btab_ver_2.html ]
  Here this song ...
G----------------------------------
D------5--------5h7----------------
A------------5------5--------------
E--3-3---3-------------0-2-3-5-5-5-


  Battles are ...
G---------------------------------------------
D---------------------------------------------
A--2-2-2-2-2-------------5-5-5-5-5------------ X3
E-------------3-3-3-3-3-------------5-5-5-5-5-


 If There's a Fight ...
G-------------------------------------------
D-------------------------------------------
A-------------------------------------------
E--3-3-3-3-3-3-3-3-3-3--5-5-5-5-5-5-5-5-5-5-


  Back to the top ...

  Piano Outro...

Originally Tab'd by -Nyte-
Email NyteThorn@aol.com w/ questions comments
Comments