Manny Pacquiao - Para Sayo Ang Laban Na To Chords & Tabs

 

Para Sayo Ang Laban Na To Chords & Tabs

Manny Pacquiao Chords & Tabs

Version: 2 Type: Tab

Para Sayo Ang Laban Na To Tab

   
Artist: Manny Pacquiao
Album: (Single)
Song: Para Sa'yo Ang Laban Na 'To

Tabbed by: John Kristoffer M. Gomez

Tsk. Tsk. Tsk. Ito tlaga nangyayare sakin pag alang magawa
sa bahay.
Ang lufet ng gitarista ni manny! hahaha!

Eto ung mga Guitar Solo sa kanta nya [meron nang nakagawa ng
accurate chords nito.. kaya ung mga adlib na lng kinapa ko]

Legend:
/   = slide up
\   = slide down
~   = vibrato
( ) = ghost note
h   = hammer-on

Intro Solo:
E--------------------------------------------------------------|
B------------------------------------------12/14--12--11--12~~-|
G-----------6--8--10~~--11/13--11--10--11----------------------|
D--6--8--9-----------------------------------------------------|
A--------------------------------------------------------------|
E--------------------------------------------------------------|

E-----------------|
B--11--12--9~~~~--|
G-----------------|
D-----------------|
A-----------------|
E-----------------|

[ Tab from: http://www.guitartabs.cc/tabs/m/manny_pacquiao/para_sayo_ang_laban_na_to_tab_ver_2.html ]
2nd Solo (After 1st chorus):
E---------------------------------------------|
B--9--11--12--14--16-16/18--19/21-19-18-19~~--|
G---------------------------------------------|
D---------------------------------------------|
A---------------------------------------------|
E---------------------------------------------|

E-----------------------------18h19-18-----------------|
B--18----------------18-19-21----------19-19/21-21~~~--|
G-----21-18-16-18-21-----------------------------------|
D------------------------------------------------------|
A------------------------------------------------------|
E------------------------------------------------------|


Guitar Lick (3rd Chorus):  <--watch out for the timing
E----------------------------------15-16-18~~~~--20~~(20)\(1)--|
B--16~~-13----------------14-16-18-----------------------------|
G-----------15~~-13-15-17--------------------------------------|
D--------------------------------------------------------------|
A--------------------------------------------------------------|
E--------------------------------------------------------------|

bale.. un na ung part nung lead guitars..
ayan pwede nang i-jam ng mga banda nyo ung kanta ni manny! hehehe! :P