Manntis - The End's Where It Begins Chords & Tabs

 

The End's Where It Begins Chords & Tabs

Manntis Chords & Tabs

Version: 1 Type: Tab 0 ratings
1 star 2 stars 3 stars 4 stars 5 stars
comments

The End's Where It Begins Tab

Artist: Manntis
Song: The End's Where It Begins
Album: Sleep In Your Grave
Tuning: Standard
Transcribed By: Frank T.

This was written for "Rob Halford" 
on the MTV Series "Battle For Ozzfest".

Intro:2x
GTR I
E--------------1-11-----------1-11------1-1111-1-11-----
B--------------1-11-----------1-11------1-1111-1-11-----
G--------------2-22-----------2-22------3-3333-3-33-----
D--0h2h3-0-----0-00--0h2h3-0--0-00------3-0000-0-00-----
A----------0---0-00-----------0-00------0-0000-0-00-----
E-------------------------------------------------------

Intro:
GTR II
E--------------1-11--------------1-11----
B--------3-----3-33--------3-----3-33----
G--------------2-22--------------2-22----
D--0h2h3-------0-00--0h2h3-------0-00----
A----------0------------------0----------
E----------------------------------------


E------------------------------------------------
B------------------------------------------------
G--7-777777/-10101010101010/999999101010101010---
D--x-xxxxxx---x-x-x-x-x-x-x-xxxxxx-x-x-x-x-x-x---
A--5-555555/--8-8-8-8-8-8-8/777777-8-8-8-8-8-8---
E------------------------------------------------


E--------------1-11--------------1-11----
B--------3-----3-33--------3-----3-33----
G--------------2-22--------------2-22----
D--0h2h3-------0-00--0h2h3-------0-00----
A----------0------------------0----------
E----------------------------------------


E---------------------------------------------
B---------------------------------------------
G--555555/7777777/9999999/1010101010101010----
D--xxxxxx-xxxxxxx-xxxxxxx--x-x-x-x-x-x-x-x----
A--333333/5555555/7777777/-8-8-8-8-8-8-8-8----
E---------------------------------------------

GTR I
Verse:
E-1--11-111111111-1-11-1111111---11-11-1111111111------
B-1--11-111111111-3-33-3333333---11-11-1111111111------
G-2--22-222222222-2-22-2222222---33-33-3333333333------
D-0--00-000000000-0-00-0000000---33-33-3333333333------
A-0--00-000000000-0-00-0000000---00-00-0000000000------
E------------------------------------------------------

GTR II
Verse:
E-00-00-000000-000000-----------------------------------------------
B-55-55-555555-555555-----------------------------------------------
G-55-55-555555-555555-5/77777/9999999/121212121212/101010/999/1010--
D-00-00-000000-000000-x-xxxxx-xxxxxxx--x-x-x-x-x-x--x-x-x-xxx--x-x--
A---------------------3/55555/7777777/101010101010/-8-8-8/777/-8-8--
E-------------------------------------------------------------------


GTR I
Chorus:
E--0-000000000000000------1-111111111111111111111-
B--3-333333333333333------1-111111111111111111111-
G--2-222222222222222-5-7x-3-333333333333333333333-
D--0-000000000000000-5-7x-3-333333333333333333333-
A--0-000000000000000-3-5x-0-000000000000000000000-
E-------------------------------------------------

E--0-000000000000000------1----
B--3-333333333333333------1----
G--2-222222222222222-5-7x-3----
D--0-000000000000000-5-7x-3----
A--0-000000000000000-3-5x-0----
E------------------------------

GTR II
Chorus
E------------------------------------------------------------------
B------------------------------------------------------------------
G--7777777777777777--5--7x-10101010101010/1212121212/10101010/999--
D--xxxxxxxxxxxxxxxx--x--xx--x-x-x-x-x-x-x--x-x-x-x-x--x-x-x-x-xxx--
A--5555555555555555--3--5x--8-8-8-8-8-8-8/1010101010/-8-8-8-8/777--
E------------------------------------------------------------------


E-------------------------------------------1-----
B-------------------------------------------1-----
G-5/77777777/999999999/101010101010--5--7x--3-----
D-x-xxxxxxxx-xxxxxxxxx--x-x-x-x-x-x--x--xx--3-----
A-3/55555555/777777777/-8-8-8-8-8-8--3--5x--0-----
E-------------------------------------------------


GTR I
E--------------1-11-----------1-11------1-1111-1-11-----
B--------------1-11-----------1-11------1-1111-1-11-----
G--------------2-22-----------2-22------3-3333-3-33-----
D--0h2h3-0-----0-00--0h2h3-0--0-00------3-0000-0-00-----
A----------0---0-00-----------0-00------0-0000-0-00-----
E-------------------------------------------------------


[ Tab from: http://www.guitartabs.cc/tabs/m/manntis/the_ends_where_it_begins_tab.html ]
Solo:
GTR II
E--15-15-1515-15-1515-15/12-12-12p10-10/12-12-12-12-8-8-10/12-12-121212-
B-----------------------------------------------------------------------
G-----------------------------------------------------------------------
D-----------------------------------------------------------------------
A-----------------------------------------------------------------------
E-----------------------------------------------------------------------

E--5555555/88888888--5555555/1010101010-888-101010-1212121313131212-88-1515151515
B--------------------------------------------------------------------------------
G--------------------------------------------------------------------------------
D--------------------------------------------------------------------------------
A--------------------------------------------------------------------------------
E--------------------------------------------------------------------------------

Background:
GTR I
E--11111111111111111111111---111111111111-111111111111---
B--11111111111111111111111---111111111111-111111111111---
G--33333333333333333333333---000000222222-000000222222---
D--33333333333333333333333---333333333333-333333333333---
A--00000000000000000000000-------------------------------
E--------------------------------------------------------

E--11111111111111111111111---1111-1111--11----
B--11111111111111111111111---1111-1111--11----
G--33333333333333333333333---3333-3333--33----
D--33333333333333333333333---3333-3333--33----
A--00000000000000000000000---0000-0000--00----
E---------------------------------------------


GTR I
2nd Chorus:
E--0-000000000000000------1-111111111111111111111
B--3-333333333333333------1-111111111111111111111
G--2-222222222222222-5-7x-3-333333333333333333333
D--0-000000000000000-5-7x-3-333333333333333333333
A--0-000000000000000-3-5x-0-000000000000000000000
E------------------------------------------------

E--0-000000000000000------1----
B--3-333333333333333------1----
G--2-222222222222222-5-7x-3----
D--0-000000000000000-5-7x-3----
A--0-000000000000000-3-5x-0----
E------------------------------

GTR II
2nd Chorus:
E------------------------------------------------------------------
B------------------------------------------------------------------
G--7777777777777777--5--7x-10101010101010/1212121212/10101010/999--
D--xxxxxxxxxxxxxxxx--x--xx--x-x-x-x-x-x-x--x-x-x-x-x--x-x-x-x-xxx--
A--5555555555555555--3--5x--8-8-8-8-8-8-8/1010101010/-8-8-8-8/777--
E------------------------------------------------------------------


E-------------------------------------------1-----
B-------------------------------------------1-----
G-5/77777777/999999999/101010101010--5--7x--3-----
D-x-xxxxxxxx-xxxxxxxxx--x-x-x-x-x-x--x--xx--3-----
A-3/55555555/777777777/-8-8-8-8-8-8--3--5x--0-----
E-------------------------------------------------

Bridge:
GTR I
E--------------1-11-----------1-11------1-1111-1-11-----
B--------------1-11-----------1-11------1-1111-1-11-----
G--------------2-22-----------2-22------3-3333-3-33-----
D--0h2h3-0-----0-00--0h2h3-0--0-00------3-0000-0-00-----
A----------0---0-00-----------0-00------0-0000-0-00-----
E-------------------------------------------------------

Bridge:
GTR II
E--------------1-11--------------1-11----
B--------3-----3-33--------3-----3-33----
G--------------2-22--------------2-22----
D--0h2h3-------0-00--0h2h3-------0-00----
A----------0------------------0----------
E----------------------------------------


E------------------------------------------------
B------------------------------------------------
G--7-777777/-10101010101010/999999101010101010---
D--x-xxxxxx---x-x-x-x-x-x-x-xxxxxx-x-x-x-x-x-x---
A--5-555555/--8-8-8-8-8-8-8/777777-8-8-8-8-8-8---
E------------------------------------------------

GTR II
E--------------1-11--------------1-11----
B--------3-----3-33--------3-----3-33----
G--------------2-22--------------2-22----
D--0h2h3-------0-00--0h2h3-------0-00----
A----------0------------------0----------
E----------------------------------------
GTR I
E--------------1-11-----------1-11------1--
B--------------1-11-----------1-11------1--
G--------------2-22-----------2-22------3--
D--0h2h3-0-----0-00--0h2h3-0--0-00------3--
A----------0---0-00-----------0-00------0--
E------------------------------------------

End w/
E--1---
B--1---
G--3---
D--3---
A--0---
E------

Comments