Manntis - Ends Where It Begins Chords & Tabs

 

Ends Where It Begins Chords & Tabs

Manntis Chords & Tabs

Version: 1 Type: Tab 0 ratings
1 star 2 stars 3 stars 4 stars 5 stars
comments

Ends Where It Begins Tab

   
----------------------------------------------------------------------------
		      The End's Where It Begins - Manntis
----------------------------------------------------------------------------
Album: Sleep In Your Grave
YES! This is the same Manntis from the show Battle for Ozzfest. If you've seen
it, you may even recognize this song already. 

Tabbed by:llama_slap
Email:sk84life@adelphia.net

Tuning: Standard

		The strumming pattern is not always correct, I'm just telling
you what chords to hit. It's easy to figure out though, but if you need help
email me. Also, if you don't have the CD Sleep In Your Grave by Manntis, buy
it now! Please leave comments and rate.

Intro:2x
Guitar 1
e-------------1-11-------------1-11------1-1111-1-11-----|
B-------------1-11-------------1-11------1-1111-1-11-----|
G-------------2-22-------------2-22------3-3333-3-33-----|
D--0h2h3-0----0-00--0h2h3-0----0-00------3-3333-3-33-----|
A-------------0-00-------------0-00------0-0000-0-00-----|
E----------0----------------0----------------------------|

Intro:
Guitar 2
e-------------1-11-------------1-11----|
B--------3----3-33--------3----3-33----|
G-------------2-22-------------2-22----|
D--0h2h3------0-00--0h2h3------0-00----|
A----------0----------------0----------|
E--------------------------------------|


e------------------------------------------------|
B------------------------------------------------|
G--7-777777/-10101010101010/999999101010101010---|
D--x-xxxxxx---x-x-x-x-x-x-x-xxxxxx-x-x-x-x-x-x---|
A--5-555555/--8-8-8-8-8-8-8/777777-8-8-8-8-8-8---|
E------------------------------------------------|


e-------------1-11-------------1-11----|
B--------3----3-33--------3----3-33----|
G-------------2-22-------------2-22----|
D--0h2h3------0-00--0h2h3------0-00----|
A----------0----------------0----------|
E--------------------------------------|


e---------------------------------------------|
B---------------------------------------------|
G--555555/7777777/9999999/1010101010101010----|
D--xxxxxx-xxxxxxx-xxxxxxx--x-x-x-x-x-x-x-x----|
A--333333/5555555/7777777/-8-8-8-8-8-8-8-8----|
E---------------------------------------------|

Verse: Guitar 1
e-1--11-111111111-1-11-1111111---11-11-1111111111------|
B-1--11-111111111-3-33-3333333---11-11-1111111111------|
G-2--22-222222222-2-22-2222222---33-33-3333333333------|
D-0--00-000000000-0-00-0000000---33-33-3333333333------|
A-0--00-000000000-0-00-0000000---00-00-0000000000------|
E------------------------------------------------------|

Verse: Guitar 2
e-00-00-000000-000000-----------------------------------------------|
B-55-55-555555-555555-----------------------------------------------|
G-55-55-555555-555555-5/77777/9999999/121212121212/101010/999/1010--|
D-00-00-000000-000000-x-xxxxx-xxxxxxx--x-x-x-x-x-x--x-x-x-xxx--x-x--|
A---------------------3/55555/7777777/101010101010/-8-8-8/777/-8-8--|
E-------------------------------------------------------------------|

Chorus: Guitar 1
e--0-000000000000000------1-111111111111111111111--|
B--3-333333333333333------1-111111111111111111111--|
G--2-222222222222222-5-7x-3-333333333333333333333--|
D--0-000000000000000-5-7x-3-333333333333333333333--|
A--0-000000000000000-3-5x-0-000000000000000000000--|
E--------------------------------------------------|

e--0-000000000000000------1-----x------------------|
B--3-333333333333333------1-----x------------------|
G--2-222222222222222-5-7x-3-----x------------------|
D--0-000000000000000-5-7x-3-----x------------------|
A--0-000000000000000-3-5x-0-----x------------------|
E-------------------------------x------------------|

Chorus: Guitar 2
e------------------------------------------------------------------|
B------------------------------------------------------------------|
G--7777777777777777--5--7x-10101010101010/1212121212/10101010/999--|
D--xxxxxxxxxxxxxxxx--x--xx--x-x-x-x-x-x-x--x-x-x-x-x--x-x-x-x-xxx--|
A--5555555555555555--3--5x--8-8-8-8-8-8-8/1010101010/-8-8-8-8/777--|
E------------------------------------------------------------------|

e-------------------------------------------1--x---|
B-------------------------------------------1--x---|
G-5/77777777/999999999/101010101010--5--7x--3--x---|
D-x-xxxxxxxx-xxxxxxxxx--x-x-x-x-x-x--x--xx--3--x---|
A-3/55555555/777777777/-8-8-8-8-8-8--3--5x--0--x---|
E----------------------------------------------x---|

Guitar 1
e-------------1-11-------------1-11------1-1111-1-11-----|
B-------------1-11-------------1-11------1-1111-1-11-----|
G-------------2-22-------------2-22------3-3333-3-33-----|
D--0h2h3-0----0-00--0h2h3-0----0-00------3-0000-0-00-----|
A-------------0-00-------------0-00------0-0000-0-00-----|
E----------0----------------0----------------------------|
[ Tab from: http://www.guitartabs.cc/tabs/m/manntis/ends_where_it_begins_tab.html ]
Solo: Guitar 2
e-15-15-1515-15-1515-15/12-12-12p10-10/12-12-12-12-8-8-10/12-12-121212-----|
B--------------------------------------------------------------------------|
G--------------------------------------------------------------------------|
D--------------------------------------------------------------------------|
A--------------------------------------------------------------------------|
E--------------------------------------------------------------------------|

e-5555555/88888888--5555555/1010101010-888-101010-1212121313131212-88------|
B--------------------------------------------------------------------------|
G--------------------------------------------------------------------------|
D--------------------------------------------------------------------------|
A--------------------------------------------------------------------------|
E--------------------------------------------------------------------------|
  
   end of solo
e-15151515x-15151515x-1515-------------------------------------------------|

Solo Background: Guitar 1
e--11111111111111111111111---111111111111-111111111111-|
B--11111111111111111111111---111111111111-111111111111-|
G--33333333333333333333333---000000222222-000000222222-|
D--33333333333333333333333---333333333333-333333333333-|
A--00000000000000000000000-----------------------------|
E------------------------------------------------------|

e--11111111111111111111111---1111-1111--11-------------|
B--11111111111111111111111---1111-1111--11-------------|
G--33333333333333333333333---3333-3333--33-------------|
D--33333333333333333333333---3333-3333--33-------------|
A--00000000000000000000000---0000-0000--00-------------|
E------------------------------------------------------|

2nd Chorus: Guitar 1
E--0-000000000000000------1-111111111111111111111------|
B--3-333333333333333------1-111111111111111111111------|
G--2-222222222222222-5-7x-3-333333333333333333333------|
D--0-000000000000000-5-7x-3-333333333333333333333------|
A--0-000000000000000-3-5x-0-000000000000000000000------|
E------------------------------------------------------|

e--0-000000000000000------1--x--|
B--3-333333333333333------1--x--|
G--2-222222222222222-5-7x-3--x--|
D--0-000000000000000-5-7x-3--x--|
A--0-000000000000000-3-5x-0--x--|
E----------------------------x--|

2nd Chorus: Guitar 2
e------------------------------------------------------------------|
B------------------------------------------------------------------|
G--7777777777777777--5--7x-10101010101010/1212121212/10101010/999--|
D--xxxxxxxxxxxxxxxx--x--xx--x-x-x-x-x-x-x--x-x-x-x-x--x-x-x-x-xxx--|
A--5555555555555555--3--5x--8-8-8-8-8-8-8/1010101010/-8-8-8-8/777--|
E------------------------------------------------------------------|

e-------------------------------------------1--x---------|
B-------------------------------------------1--x---------|
G-5/77777777/999999999/101010101010--5--7x--3--x---------|
D-x-xxxxxxxx-xxxxxxxxx--x-x-x-x-x-x--x--xx--3--x---------|
A-3/55555555/777777777/-8-8-8-8-8-8--3--5x--0--x---------|
E----------------------------------------------x---------|

Bridge: Guitar 1
e-------------1-11-------------1-11------1-1111-1-11-----|
B-------------1-11-------------1-11------1-1111-1-11-----|
G-------------2-22-------------2-22------3-3333-3-33-----|
D--0h2h3-0----0-00--0h2h3-0----0-00------3-0000-0-00-----|
A-------------0-00-------------0-00------0-0000-0-00-----|
E----------0----------------0----------------------------|

Bridge: Guitar 2
e-------------1-11-------------1-11----|
B--------3----3-33--------3----3-33----|
G-------------2-22-------------2-22----|
D--0h2h3------0-00--0h2h3------0-00----|
A----------0----------------0----------|
E--------------------------------------|

e------------------------------------------------|
B------------------------------------------------|
G--7-777777/-10101010101010/999999101010101010---|
D--x-xxxxxx---x-x-x-x-x-x-x-xxxxxx-x-x-x-x-x-x---|
A--5-555555/--8-8-8-8-8-8-8/777777-8-8-8-8-8-8---|
E------------------------------------------------|

Guitar 1
e-------------1-11-------------1-11------1--------|
B-------------1-11-------------1-11------1--------|
G-------------2-22-------------2-22------3--------|
D--0h2h3-0----0-00--0h2h3-0----0-00------3--------|
A-------------0-00-------------0-00------0--------|
E----------0----------------0---------------------|

Guitar 2
e-------------1-11-------------1-11----|
B--------3----3-33--------3----3-33----|
G-------------2-22-------------2-22----|
D--0h2h3------0-00--0h2h3------0-00----|
A----------0----------------0----------|
E--------------------------------------|

End on
e--1---|
B--1---|
G--3---|
D--3---|
A--0---|
E------|


| /  slide up
| \  slide down
| h  hammer-on
| p  pull-off
| ~  vibrato
| +  harmonic
| x  Mute note
============================================================================
Comments