Manilla Road - The Veils Of Negative Existence Chords & Tabs

 

The Veils Of Negative Existence Chords & Tabs

Manilla Road Chords & Tabs

Version: 1 Type: Tab 0 ratings
1 star 2 stars 3 stars 4 stars 5 stars
comments

The Veils Of Negative Existence Tab

   
THE VEILS OF NEGATIVE EXISTENCE (Manilla Road) 

Tabbed by Spyros Soldatos lordovol@mailbox.gr 
Homepage http://www.geocities.com/SunsetStrip/Frontrow/8281/

     Rh.Fig.1................
      G#5         E5        4x
e:||------------------------||
B:||*----------------------*||
G:||------------------------||
D:||--6---6--X----2---2--X--||
A:||*-6---6--X----2---2--X-*||
E:||--4---4--X----0---0--X--||

First Verse w/Rh.Fig.1 8x
G#5                E5          G#5      E5
  I've sailed the seas of negativity 
  To banish evil from this place
  I fight with sword of fire and lightening
  I am the guardian come this day


   Chorus................................................................
    F#5                                  G#5
e:|------------------------------------|--------------------------------|
B:|------------------------------------|--------------------------------|
G:|------------------------------------|--------------------------------|
D:|-4--------4--------4--------4-------|-6--------6--------6-6-6--6-6-6-|
A:|-4--------4--------4--------4-------|-6--------6--------6-6-6--6-6-6-|
E:|-2--X--X--2--X--X--2--X--X--2--X--X-|-4--X--X--4--X--X--4-4-4--4-4-4-|
             I will  never    put   my sword     down 


  .............................................................
    F#5                                   E5         F#5
e:|-------------------------------------|----------------------|
B:|-------------------------------------|----------------------|
G:|-------------------------------------|----------------------|
D:|-4--------4--------4--------4--------|-2----------4---------|
A:|-4--------4--------4--------4--------|-2----------4---------|
E:|-2--X--X--2--X--X--2--X--X--2--X--X--|-0----------2---------|
             I will  never      run     away


Cont. Chorus w/Rh.Fig.1 8x
G#5        E5      G#5       E5  
  In the veils of negative existence
G#5         E5              G#5   E5
  I am the master here to stay


Second Verse w/Rh.Fig.1 8x

My crystal shield will never fail me
It can withstand the Devil's rain
And with the Lords of light to guide me
I bring forth vengeance in thei name


Repeat Chorus

Cont. Chorus w/Rh.Fig.1 8x
G#5        E5      G#5       E5  
  In the veils of negative existence
G#5            E5              G#5   E5
  I know it's not my mind at play

[ Tab from: http://www.guitartabs.cc/tabs/m/manilla_road/the_veils_of_negative_existence_tab.html ]
   Bridge................................................
    G#5            E5         G#5           E5
e:|-------------------------|---------------------------|
B:|-------------------------|---------------------------|
G:|-------------------------|---------------------------|
D:|-6---6-6-6-6-6--2--------|-6---6-6-6-6-6-2-----------|
A:|-6---6-6-6-6-6--2--------|-6---6-6-6-6-6-2-----------|
E:|-4---4-4-4-4-4--0--------|-4---4-4-4-4-4-0-----------|



  .......................................................
   G#5           E5                 G#5           E5
e:--------------------------------|-----------------------|
B:--------------------------------|-----------------------|
G:--------------------------------|-----------------------|
D:-6---6-6-6-6-6-2-2-2-2-2-2-2-2--|-6---6-6-6-6-6-2-------|
A:-6---6-6-6-6-6-2-2-2-2-2-2-2-2--|-6---6-6-6-6-6-2-------|
E:-4---4-4-4-4-4-0-0-0-0-0-0-0-0--|-4---4-4-4-4-4-0-------|



    Bridge2................................................   
      G#5            E5                G#5          E5      
e:||-----------------------------------------------------|
B:||*---------------------------------------------------*|
G:||-----------------------------------------------------|
D:||--6--------------2-----------------6------------2----|
A:||*-6--------------2-----------------6------------2---*|
E:||--4--------------0-----------------4------------0----|
       Upon    the   island   of   damnation
       The horde of Hades screams and wails


Cont. Third Verse w/Rh.Fig.1 4x

Blood of lies and execution
Has brought back light into the veils

Repeat chorus

Solo w/Rh.Fig.1

Repeat chorus

    Outro1............................
      G#5       F5        B5       
e:||--------------------------------|
B:||*------------------------------*|
G:||--------------------------------|
D:||-------------------------4---4--|
A:||*----6---6-----3---3--2----5---*|
E:||--4----7----1----4--------------|

Fourth Verse w/Outro1 7x

G#5        F5           B5             G#5   F5  B5
  Inside of the darkness between the planes
  A tesseract dimension few know its name
  At Prydwen my longship on silver sails
  Excalibur on my side we shall not 

   Outro2....................................................
    G#5
e:|----------------------|-----------------------|-----------|
B:|----------------------|-----------------------|-----------|
G:|----------------------|-----------------------|-----------|
D:|----------------------|-----------------------|-6---------|
A:|-----6-5-6------6-5-6-|-----6-5-6-----6-5-6---|-6---------|
E:|-4-----------4--------|--4---------4----------|-4---------|
    fa____il   a______il    a_____il  a___________il
Comments