Manic Street Preachers - You Stole The Sun From My Heart Chords & Tabs

 

You Stole The Sun From My Heart Chords & Tabs

Manic Street Preachers Chords & Tabs

Version: 2 Type: Tab 0 ratings
1 star 2 stars 3 stars 4 stars 5 stars
comments

You Stole The Sun From My Heart Tab

   
#-----------------------------PLEASE NOTE-------------------------------------#
#This OLGA file is the author's own work and represents their interpretation  #
#of the song. You may only use this file for private study, scholarship, or   #
#research. Remember to view this file in Courier, or some other monospaced    #
#font. See http://www.olga.net/faq/ for more information.                     #
#-----------------------------------------------------------------------------#

Date: Mon, 10 Jul 2000 11:45:03 -0400
From: "Alexander Prasoloff" 
Subject: m/manic_street_preachers/you_stole_the_sun_from_my_heart.tab

Artist: Manic Street Preachers
Song: You Stole The Sun From My Heart
Album: This Is My Truth Tell Me Yours


Intro:

      Riff 1            Riff 2          Riff 1            Riff 3
e|----------------|--------------|----------------|------------------|
B|----------------|--------------|----------------|------------------|
G|----------------|--------------|----------------|------------------|
D|----------12----|--------12----|----------12----|---------12-------|
A|----10-------10-|---11------11-|----10-------10-|---11p10----10----|
E|-11----11-------|-0----0-------|-11----11-------|-0-------------11-|
[ Tab from: http://www.guitartabs.cc/tabs/m/manic_street_preachers/you_stole_the_sun_from_my_heart_tab_ver_2.html ]
      Riff 1            Riff 2          Riff 1            Riff 2
e|----------------|--------------|----------------|--------------|
B|----------------|--------------|----------------|--------------|
G|----------------|--------------|----------------|--------------|
D|----------12----|--------12----|----------12----|--------12----|
A|----10-------10-|---11------11-|----10-------10-|---11------11-|
E|-11----11-------|-0----0-------|-11----11-------|-0----0-------|
 

Verses:

      Riff 1            Riff 2          Riff 1            Riff 2
e|----------------|--------------|----------------|--------------|
B|----------------|--------------|----------------|--------------|
G|----------------|--------------|----------------|--------------|
D|----------12----|--------12----|----------12----|--------12----|
A|----10-------10-|---11------11-|----10-------10-|---11------11-|
E|-11----11-------|-0----0-------|-11----11-------|-0----0-------|
 DRINKING                ...

Riff 1            Riff 2          Riff 1            Riff 4
e|----------------|--------------|----------------|--------------------|
B|----------------|--------------|----------------|--------------------|
G|----------------|--------------|----------------|--------------------|
D|----------12----|--------12----|----------12----|-------11sl12-12----|
A|----10-------10-|---11------11-|----10-------10-|----10-----------10-|
E|-11----11-------|-0----0-------|-11----11-------|-11-----------------|
TO PURIFY           ...

etc.

In the verses alternate different number of riff 1 & riff 2; in the end   riff 4 (or riff3?)

Chords In Chorus:

B5       7 9 9 x x x
E5       x 7 9 9 x x
C#5      x 4 6 6 x x
G#5      4 6 6 x x x
A5       x 0 2 2 x x     
F#5      2 4 4 x x x
B5(II)   x 2 4 4 x x

Chorus:
B5, E5, C#5, G#5, A5
B5, E5; C#5, G#5, B5(II), F#5, A5


Example:

    B5                          E5
BUT YOU STOLE ...

C#5           G#5            A5
YOU STOLE ...




Comments