Manic Street Preachers - You Love Us Chords & Tabs

 

You Love Us Chords & Tabs

Manic Street Preachers Chords & Tabs

Version: 1 Type: Tab 0 ratings
1 star 2 stars 3 stars 4 stars 5 stars
comments

You Love Us Tab

   
tuning low to high e,a,d,g,b,e

intro - guitar 1 and 2
|---------------------------------------------------------|
|---------------------------------------------------------|
|---------------------------------------------------------|
|-5--5-5--5-5-5-5--5-5--5-5-5-5--5-5--5-5-5-5--5-5--5-5-5-| x1
|-5--5-5--5-5-5-5--5-5--5-5-5-5--5-5--5-5-5-5--5-5--5-5-5-|
|-0--3-3--3-3-3-0--3-3--3-3-3-0--3-3--3-3-3-0--3-3--3-3-3-|

intro solo
|----------------------------------------------------------------3-3-3-3-|
|--------------------------------------------6(7)(6)-5-3---------3-3-3-3-|
|-5(6)-5(6)-5(6)(5)-3------------------------------------5-3-----0-0-0-0-|
|---------------------5(6)-5---3-5(6)(5)-3-------------------3-5---------|
|------------------------------------------5-----------------------------|
|------------------------------------------------------------------------|

backing intro solo - guitar 2
|--------------------------------------------------|
|--------------------------------------------------|
|---------5----------------------------------------|
|-3--3--3-5-5--5-5--5-5--3--3--3-5--5--5--5-5--5-5-|
|-3--3--3-3-5--5-5--5-5--3--3--3-5--5--5--5-5--5-5-| x1
|-1--1--1---3--3-3--3-3--1--1--1/3--3--3--3-3--3-3-|

verse - guitars 1 and 2
|--------------------------------------------------|
|--------------------------------------------------|
|---------5----------------------------------------|
|-3--3--3-5-5--5-5--5-5--3--3--3-5--5--5--5-5--5-5-|
|-3--3--3-3-5--5-5--5-5--3--3--3-5--5--5--5-5--5-5-| x2
|-1--1--1---3--3-3--3-3--1--1--1/3--3--3--3-3--3-3-|
[ Tab from: http://www.guitartabs.cc/tabs/m/manic_street_preachers/you_love_us_tab.html ]
|--------------------------------------------------|
|--------------------------------------------------|
|-7--7--7-4/5--5-5--5-5--5-7--7--7-4/5--5-5--5-5---|
|-7--7--7-4/5--5-5--5-5--5-7--7--7-4/5--5-5--5-5---| x2
|-5--5--5-2/3--3-3--3-3--3-5--5--5-2/3--3-3--3-3---|
|--------------------------------------------------|

chorus all x2 - guitars 1 and 2
|---------------------------------------------------------|
|---------------------------------------------------------|
|-----------------------------4--2-2--2-2-2-4--2-2--2-2-2-|
|-5--5-5--5-5-5-5--5-5--5-5-5-4--2-2--2-2-2-4--2-2--2-2-2-| x1
|-5--5-5--5-5-5-5--5-5--5-5-5-2--0-0--0-0-0-2--0-0--0-0-0-|
|-0--3-3--3-3-3-0--3-3--3-3-3-----------------------------|

|---------------------------------|
|---------------------------------|
|-5---------7---------9--------12-|
|-x---------x---------x--------xx-|
|-3---------5---------7--------10-|
|---------------------------------|

verse 2
|--------------------------------------------------|
|--------------------------------------------------|
|---------5----------------------------------------|
|-3--3--3-5-5--5-5--5-5--3--3--3-5--5--5--5-5--5-5-|
|-3--3--3-3-5--5-5--5-5--3--3--3-5--5--5--5-5--5-5-| x2
|-1--1--1---3--3-3--3-3--1--1--1/3--3--3--3-3--3-3-|

|--------------------------------------------------|
|--------------------------------------------------|
|-7--7--7-4/5--5-5--5-5--5-7--7--7-4/5--5-5--5-5---|
|-7--7--7-4/5--5-5--5-5--5-7--7--7-4/5--5-5--5-5---| x2
|-5--5--5-2/3--3-3--3-3--3-5--5--5-2/3--3-3--3-3---|
|--------------------------------------------------|


solos are being worked on but thats pretty much the whole song there
Comments